>
 >
Summer Song

Summer Song Guitar Tabs

Wavorly - Summer Song chords, tabs, tablatures, lyrics

Guitar lessons | Add/correct | Request | Top 50 tabs Artists:  A B C D E F G H I J K L M N O P Q R S T U V W X Y Z 0-9

Summer Song Guitar Tabs – Wavorly

CD, Sheet music, Poster

Do you like Summer Song? Share with your friends now
ChordsTabsUkulele
Tuning: DADGAd

will look it over:)

Intro
d|---------------------------------------------------|There is also an extra
A|---------------------------------------------------|pluck" before every
G|---------------------------------------------------|fret change. But I find
D|------0---0-------0--0------0---0-------0---0------|myself awkwardly trying
A|----0---0---0---0--0---0---0--0---0---0---0---0----|to play it. So I just
D|--5-----------9----------4----------7--------------|play it like this. Just
                                                    listen to the song:)

Part 1
d|-0---4h5-4(s)2-0-------|       d|--0--0--|
A|-0---------------0-0---|       A|--0--0--|
G|-2---------------------| then: G|--2--2--|
D|-0---------------------|       D|--0--2--|
A|-0---------------------|       A|--2--0--|
D|-0---------------------|       D|--0--0--|

Part 2
d|-0---------------------|       d|--0--0--|
A|-0---------------------|       A|--0--0--|
G|-2---------------------| then: G|--2--2--|
D|-0---4h5-4(s)2-0-------|       D|--0--2--|
A|-0---------------0-0---|       A|--2--0--|
D|-0---------------------|       D|--0--0--|

***READ***
Now, on the studio version it sounds like part 1 is being played twice. When he plays it 
live he just plays part 2 twice. I find my happy medium with playing part 1 then part 
2. Whatever sounds best to you.

Bridge:

Part 2
d|--7--5--4--5--|          d|--0--0--0--|
A|--0--0--0--0--|          A|--0--0--0--|
G|--0--0--0--0--|Repeat 4x G|--2--2--2--|
D|--0--0--0--0--|          D|--0--2--0--|
A|--0--0--0--0--|          A|--0--0--2--|
D|--7--5--3--5--|          D|--0--0--0--|


Well theres my shot at it.





Comments


Popular Wavorly tabs & chords
Forgive And Forget Chords
Praise And Adore Chords
Praise And Adore 1 Chords
Praise And Adore 3 Chords
Summer Song Chords
Madmen Tabs
Madmen Intro Tabs
Forgive And Forget Ukulele
Praise And Adore Ukulele
Summer Song Ukulele


Song lyrics



↑ Back to top | Tablatures and chords are parodies/interpretations of the original songs. You may use it for private study, scholarship, research or language learning purposes only
© 2014 AZChords.com Contact us | Privacy policy | DMCA | Add/correct tabs | Request tabs | Top 50 tabs