>
 >
Madmen

Madmen Guitar Tabs

Wavorly - Madmen chords, tabs, tablatures, lyrics

Guitar lessons | Add/correct | Request | Top 50 tabs Artists:  A B C D E F G H I J K L M N O P Q R S T U V W X Y Z 0-9

Madmen Guitar Tabs – Wavorly

CD, Sheet music, Poster

Do you like Madmen? Share with your friends now
Tabs

Drop D

NOTE: I know there is supposed to be 2 guitars, but I 

INTRO
E |----------------|
B |----------------|
G |----------------|
D |66--66--66--662-|
A |66--66--66--662-|
D |66--66--66--662-|

E |----------------------------------------------------------------|
B |----------------------------------------------------------------|
G |----------------------------------------------------------------|
D |--------------------------------------------------------22-22\1-|
A |--7---7---7-9-67--6---6---6-7-67--4---4---4---4---3---3-22-22\1-|
D |66--66--66-6-6--66--66--66-6-6--66--66--66--66--66--66--22-22\1-|

VERSE 1
“say goodbye to…”
E |----------------------------------------------------------------|
B |----------------------------------------------------------------|
G |----------------------------------------------------------------|
D |------------------------------------------------------------221-|
A |--7---7--9-67--6---6---6-7-67--4--4---4---4---4---3---3---3-221-|
D |66--66-66-6--66--66--66-6-6--66-66--66--66--66--66--66--66--221-|

(this goes along nicely w/ the vocals)
E |----------------------------------------------------------------|
B |------------------9-7-----------------------------9-7-----------|
G |--------8-88-6/8------9-8-66-4\3--------8-88-6/8------9-8-66-4\3|
D |xx6-6-6---------xx--------------xx6-6-6---------xx--------------|
A |xx6-6-6---------xx--------------xx6-6-6---------xx--------------|
D |xx6-6-6---------xx--------------xx6-6-6---------xx--------------|

E |----------------|
B |----------------|
G |----------------|
D |22-2-24--44444--| 
A |22-2-24--44444--|
D |22-2-24--44444--|   (“PM” is palm mute, btw)
PM .. . .   ..... 

CHORUS
E |----------------------------------------------------------------|
B |----------------------------------------------------------------|
G |------------------------66666666------------------------66666666|
D |6666666669999999922222226666666666666666699999999222222266666666|
A |6666666669999999922222224444444466666666999999992222222244444444|
D |666666669999999922222222--------666666669999999922222222--------|

POST-CHORUS
E |------------------------------------------------444777666-------|
B |---------------------------------------------------------555/8~-|
G |---8666666666666---6444444444333---666888---4~------------------|
D |666-------------222-------------666------666--------------------|
A |666-------------222-------------666-----------------------------|
D |666-------------222-------------666-----------------------------|

VERSE 2 (bass plays this part of the verse alone, just let that G# ring out)
E |--------------------------------|
B |9~~~----------------------------|
G |--------------------------------|
D |--------------------------------|
A |--------------------------------|
D |--------------------------------|

E |----------------------------------------------------------------|
B |------------------9-7-----------------------------9-7-----------|
G |--------8-88-6/8------9-8-66-4\3--------8-88-6/8------9-8-66-4\3|
D |xx6-6-6---------xx--------------xx6-6-6---------xx--------------|
A |xx6-6-6---------xx--------------xx6-6-6---------xx--------------|
D |xx6-6-6---------xx--------------xx6-6-6---------xx--------------|

E |----------------|
B |----------------|
G |--------99-99-9-|
D |2~--/8~-88-88-8-|
A |--------77-77-7-|
D |----------------|

CHORUS riff again, but different Post-Chorus

POST-CHORUS
E |------------|
B |------------|
G |------------|
D |------4--66-|
A |2-1---------|
D |----2--4----|

EPIC BRIDGE RIFF (v=11th fret, t=13th fret)
E |----------------------------------------------------------------------------------|
B |----------------------------------------------------------------------------------|
G |-------88888888/tttt-------88888888/vvvv-------88888888/tttt-------88888888-8-8-8-|
D |----------------------------------------------------------------------------8-8-8-|
A |----------------------------------------------------------------------------6-6-6-|
D |666-6-6-------------666-6-6-------------666-6-6-------------666-6-6---------------|
PM ... . .             ... . .             ... . .             ... . .

E |-----------------------------------------------------------------------|
B |-----------------------------------------------------------------------|
G |----88888888/tttt-----77777777/vvvv-----88888888/tttt-----88888888/vvvv|
D |-----------------------------------------------------------------------|
A |-----------------------------------------------------------------------|
D |6666--------------6666--------------6666--------------6666-------------|

E |--------------------------------|
B |--------------------------------|
G |--------------------------------|
D |6~~~----------------------------|
A |--------------------------------|
D |--------------------------------|
and let that ring out for a wee bit 

E |----------------------------------------------------------------|
B |----------------------------------------------------------------|
G |------------------------66666666------------------------66666666|
D |66----------xxxx222222226666666666666666699999999222222266666666|
A |66----------xxxx222222224444444466666666999999992222222244444444|
D |66----------xxxx22222222--------666666669999999922222222--------|

POST-CHORUS
E |------------------------------------------------444777666-------|
B |---------------------------------------------------------555/8~-|
G |---8666666666666---6444444444333---666888---4~------------------|
D |666-------------222-------------666------666--------------------|
A |666-------------222-------------666-----------------------------|
D |666-------------222-------------666-----------------------------|

OUTRO
E |----------------------------------------------------------------|
B |----------------------------------------------------------------|
G |----------------------------------------------------------------|
D |------------------------------------------------------------221-|
A |--7---7--9-67--6---6---6-7-67--4--4---4---4---4---3---3---3-221-|
D |66--66-66-6--66--66--66-6-6--66-66--66--66--66--66--66--66--221-|

E |----------------------------------------------------------------|
B |----------------------------------------------------------------|
G |--------------------------------------------------------9-99-99\|
D |--------------------------------------------------------8-88-88\|
A |--7---7--9-67--6---6---6-7-67--4--4---4---4---4---3---3-7-77-77\|
D |66--66-66-6--66--66--66-6-6--66-66--66--66--66--66--66----------|


Rate, comment, corrections, all of the above please! TY





Comments


Popular Wavorly tabs & chords
Forgive And Forget Chords
How Have We Come This Far Chords
Praise And Adore Chords
Praise And Adore 1 Chords
Praise And Adore 2 Chords
Madmen Intro Tabs
Summer Song Tabs
Forgive And Forget Ukulele
How Have We Come This Far Ukulele
Summer Song Ukulele


Song lyrics



↑ Back to top | Tablatures and chords are parodies/interpretations of the original songs. You may use it for private study, scholarship, research or language learning purposes only
© 2014 AZChords.com Contact us | Privacy policy | DMCA | Add/correct tabs | Request tabs | Top 50 tabs