» » »

Psalm Tabs (ver.1)

Artists:  A B C D E F G H I J K L M N O P Q R S T U V W X Y Z # 

Psalm Tabs (ver.1)

Watson Sammy
Rating:
0/5 (0 votes)

Tabs too difficult? Try these video lessons and learn fast.
                "(4)

Capo 4th fret

C-  [035500]
G-  [355400]
B7-  [024400]
A-  [577600]
B-  [024430]
G2-  [300230]  (sometimes hammer onto [300430]
D/f#-  [200230] (same hammer as above)
Em7-  [022030]
Asus-  [002230]

Verse (the first verse is just down strokes):

C                  G
I waited for the Lord
             B7
He heard my cry
     A
He got me from my pit
C                G  
Set my feet on rock
                  B7
Made my steps secure
A
Gave my lips a song
C                          G                    B7             A
A song to praise his name, A song to praise his name


Chorus (easy strumming):

B                               G2
All people clap your hands and sing
    D/f#       E7  Asus
To God, In triumph shout
B                             G2
For awesome is the Lord most high
   D/f#               E7    Asus 
Great king, In the earth throughout


Verse 2 (still just down strokes on the verse):

Misfortunes beyond count 
Have taken hold of me
My sins close in on me
Please set my feet on rock
Make my steps secure
Give my lips a song

A song to praise your name, A song to praise your name


Chorus again (this time you do mad strumming!)


Tag:


e]-----------------------------------------------------------------------
B]-----------------------------------------------------------------------
G]--------5---------5-----0-------4------2---------0----4------2---------
D]----------5---------5------0-------0------0--------0-----0------0------
A]---0-h2-----0--h2-----2------------------------------------------------
E]------------------------------3------3-------3---3---2-----2-------2---

e]----------------------------------------------
B]----------------------------------------------
G]--0---0----------0----2----2-----------2------
D]--2--------2----------2----------2------------
A]--2-----2-----2-------0-------0-----0---------
E]----------------------------------------------

Play that while singing:

All people clap your hands
And sing
For awesome is the Lord most high
Great king

(X2)  Then do some mad cool roll strums to lead back into the chorus
"            
Tabs too difficult? Try these video lessons and learn fast.




comments powered by Disqus
↑ Back to top | Tablatures and chords are parodies/interpretations of the original songs. You may use it for private study, scholarship, research or language learning purposes only