» » »

Waters Roger, Sea Shell And Stone Bass tabs (ver.1)

Artists:  A B C D E F G H I J K L M N O P Q R S T U V W X Y Z # 

Sea Shell And Stone Bass tabs (ver.1)

Waters Roger Tabs
Rating:
0/5 (0 votes)
Sea Shell And Stone lessons Tabs too difficult? Try these video lessons and learn fast
                TUNING:  STANDARD


INTRO
   1 + + 2 + + 3 + + 4 + +   1 + + 2 + + 3 + + 4 + +
G|-------------------7-----|-------------------7-----|
D|---------------------7-4-|---------------------7-4-|
A|-------------------------|-5-----------------------|
E|-------------------------|-------------------------|

VERSE 1
   1 + + 2 + + 3 + + 4 + +   1 + + 2 + + 3 + + 4 + +
G|-------------7-----7-----|-------------------------|
D|---------------------7-4-|-5---------------------5-|
A|-5-----------------------|-------------2-----5-----|
E|-------------------------|-----------3-------------|

   1 + + 2 + + 3 + + 4 + +   1 + + 2 + + 3 + + 4 + +
G|-------------------------|-------------------------|
D|-------------------------|-----------------------7-|
A|-7---------------------7/|-12----------------4-----|
E|-------------------------|-----------------5-------|

   1 + + 2 + + 3 + + 4 + +
G|-----------7-------------|
D|-------------5-----5-----|
A|-5-----------------------|
E|-------------------------|

   1 + + 2 + + 3 + + 4 + +   1 + + 2 + + 3 + + 4 + +
G|-------------------------|-------------------------|
D|-2-----------------2-/---|-7---------------------7-|
A|-----------------2-------|---------------------4---|
E|-------------------------|-------------5-----5-----|

   1 + + 2 + + 3 + + 4 + +   1 + + 2 + + 3 + + 4 + +
G|-----------7-7-----7-4---|-------12----11----9-\---|
D|-----------------------7-|-5-----------------------|
A|-5-----------------------|-------------------------|
E|-------------------------|-------------------------|

   1 + + 2 + + 3 + + 4 + +   1 + + 2 + + 3 + + 4 + +
G|-------------------------|-------------------------|
D|-------------------------|----------------------5h7|
A|-7---------------------7-|-------------4-----7-----|
E|-------------------------|-5---------5-------------|

   1 + + 2 + + 3 + + 4 + +   1 + + 2 + + 3 + + 4 + +
G|-------------7-----7-4---|-------------------------|
D|-----------------------7-|-5-------------------5-4-|
A|-5-----------------------|-------------2-----5-----|
E|-------------------------|-----------3-------------|

   1 + + 2 + + 3 + + 4 + +   1 + + 2 + + 3 + + 4 + +
G|-------------------------|-------------------------|
D|-2-----------------2-----|-7-----------5--------5h7|
A|-------------------------|-------------------------|
E|-------------------------|-------------------------|

VERSE 2
   1 + + 2 + + 3 + + 4 + +   1 + + 2 + + 3 + + 4 + +
G|-------------------7-4---|-------12----11----12119-| (12-11-9)
D|-----------------------7-|-5-----------------------|
A|-5-----------------------|-------------------------|
E|-------------------------|-------------------------|

   1 + + 2 + + 3 + + 4 + +   1 + + 2 + + 3 + + 4 + +
G|-7-----------7-----7-4---|-------12----11----12119-| (12-11-9)
D|---------4-7-----------7-|-5-----------------------|
A|-------5-----------------|-------------------------|
E|-------------------------|-------------------------|

   1 + + 2 + + 3 + + 4 + +   1 + + 2 + + 3 + + 4 + +
G|-------7-----7---------7-|-------------------------|
D|---------7---------------|----------------------5h7|
A|-5---------5-------------|---------2-5-----4-7-----|
E|-------------------------|-3-\-/-3-----5-----------|

   1 + + 2 + + 3 + + 4 + +   1 + + 2 + + 3 + + 4 + +
G|-------------7-----7--5h7|-------------------------|
D|-------------------------|-------------------5--3h5|
A|-5-----------------------|-------------2---5-------|
E|-------------------------|-3---------3-------------|

   1 + + 2 + + 3 + + 4 + +   1 + + 2 + + 3 + + 4 + +
G|-------------7-----6-----|-------------------------|
D|-----------------------7-|-------------------------|
A|-5-----------------------|---------------------4---|
E|-------------------------|-3-----------5-----5-----|

   1 + + 2 + + 3 + + 4 + +
G|-------------------------|
D|-------------------------|
A|-5-----------5-----------|
E|-----------5-----------5-|

OUTRO
   1 + + 2 + + 3 + + 4 + +   1 + + 2 + + 3 + + 4 + +
G|-------------------------|-------12----11----9-\-7-|
D|-------------------7-----|-------------------------|
A|-5-----------5--------0h5|-------------------------|
E|-----------5-------------|-3-----------------------|

   1 + + 2 + + 3 + + 4 + +   1 + + 2 + + 3 + + 4 + +
G|-------------------7-4---|-------12----11----9-0-9-|
D|-----------------------7-|-5-----------------------|
A|-5-----------5-----------|-------------------------|
E|-----------5-------------|-------------------------|
            
Submit corrections

comments powered by Disqus
↑ Back to top | Waters Roger Bass for Sea Shell And Stone. Lyrics for acoustic guitar and electric guitar. Tablatures and chords are parodies/interpretations of the original songs. You may use it for private study, scholarship, research or language learning purposes only