» » »

Waters Roger, Perfect Sense Tabs (ver.1)

Artists:  A B C D E F G H I J K L M N O P Q R S T U V W X Y Z # 

Perfect Sense Tabs (ver.1)

Waters Roger Tabs
Rating:
0/5 (0 votes)
Perfect Sense lessons Tabs too difficult? Try these video lessons and learn fast
                (Part)
Roger Waters - PERFECT SENSE (Part One) 


Intro
    C                    F                      Bb                     
e-|-0----------------------------------------------------------------|
B-|-1----1-1-0-0-----------------------------------------------------|
G-|-0----0-------2-2-0-0------------------------------3-3-2-2-0-0----|
D-|-2--------------------3------3-3-2-2-0-0-----------------------3-3|
A-|-3--------------------3------3-----------3-3-1-----1--------------|
E-|-0----------------------------------------------------------------|

    Eb                  F               Bb                       Eb
e-|------------------------------1-----------------------------------|
B-|---------------------------1--------------------------------------|
G-|-------------------------------------3--------3-3-2-2-0-0---------|
D-|-1---1-1-0-0----------------------------------------------3-3-1---|
A-|-------------3-3-1-1-3---------------1--------1---------------1---|
E-|---------------------1--------------------------------------------|

                    Ab                      Db                     Eb  
e-|------------------------------------------------------------------|
B-|------------------------------------------------------------------|
G-|-------------------------1-1-0-0----------------------------------|
D-|-1-1-0-0-----------------1-------3-3-1-1--------------------------|
A-|-1-------3-3-1-1-------------------------4------4-4-3-3-1-1-------|
E-|-----------------4------------------------------------------4-4-3-|

                       Ab                                          Db
e-|------------------------------------------------------------------|
B-|------------------------------------------------------------------|
G-|-0------0---------------------------------------1-1-0-0-----------|
D-|-1-1----1-1---1-3-1--------------------------------------3-3-1-1--|
A-|----------------------------------------------------------------4-|
E-|------------------------------------------------------------------|
                      The monkey sat on a pile of stone     

                                                   Gb
e-|------------------------------------------------------------------|
B-|------------------------------------------------------------------|
G-|------------------------------------------------------------------|
D-|------------------------------------------------------------------|
A-|----------------------------4--4--3--3--1--1----------------------|
E-|--------------------- -----------------------4-4-2----------------|
and he stared at the broken bone in his hand           and the strains

                                                         Cb
e-|------------------------------------------------------------------|
B-|------------------------------------------------------------------|
G-|------------------------------------------------------------------|
D-|------------------4----4----3----3----1----1----------------------|
A-|------------------------------------------------4--4--2-----------|
E-|------------------------------------------------------------------|
  of a Viennese quartet rang out across the land
                                                        
                     Db         
e-|------------------------------------------------------------------|
B-|--0-0-------------------------------------------------------------|
G-|------3-3-1-1-----------------1-----------------------------------|
D-|--------------4-4-3--------3-----3--------------------------------|
A-|------------------------------------------------------------------|
E-|------------------------------------------------------------------|
                                           The monkey looked up at 

              Gb                                               Cb
e-|------------------------------------------------------------------|
B-|------------------------------------------------------------------|
G-|------------------------------------------------------------------|
D-|-----------4----------------------------4-4--3-3-1-1--------------|
A-|-----------4----------------------------4-------------4--4--2-----|
E-|------------------------------------------------------------------|
  the stars       and he thought to himself       Memory is a stranger

                                 E
e-|------------------------------------------------------------------|
B-|-0--0-------------------------------------------------------------|
G-|---------3--3---1--1----------------------------------------------|
D-|-----------------------4--2--------------2----2----1-----1--------|
A-|------------------------------------------------------------------|
E-|------------------------------------------------------------------|
   History is for fools             And he cleaned his hands
                     
                                     A
e-|------------------------------------------------------------------|
B-|------------------------------------------------------------------|
G-|----------------------------------2-------------------------------|
D-|------------------------------------------------------------------|
A-|--4----4---2----2----0-----0--------------------------------------|
E--------------------------------------------------------------------|
   In a pool of holy writing                     Turned his 

                                                B
e-|------------------------------------------------------------------|
B-|------------------------------------------------------------------|
G-|-2-2-1-1----------------------------------------------------------|
D-|---------4-4-2-2--------------------------------------------------|
A-|------------------2-----------------------------------------------|
E-|------------------------------------------------------------------|
   back on the garden and set out      for the nearest town

                    E
e-|------------------------------------------------------------------|
B-|------------------------------------------------------------------|
G-|-1-------1----1---------------------------------------------------|
D-|-----4-----------4---2---------------2---------1------------------|
A-|---------------------------------------------------------------4--|
E-|------------------------------------------------------------------|
   Hold on, hold on soldier,   when you add it all up,     the tears

                    A
e-|------------------------------------------------------------------|
B-|------------------------------------------------------------------|
G-|----------------------------------2--------1----------------------|
D-|------------------------------------------------------------4-----|
A-|---------2-------0------------------------------------------------|
E-|------------------------------------------------------------------|
   and the marrowbone,    there's an ounce of gold,   and and ounce of

                     D
e-|------------------------------------------------------------------|
B-|--------------------------------------------3----------------2----|
G-|------------------------------------------------------------------|
D-|------2-----------0-----------------------------------------------|
A-|------------------------------------------------------------------|
E-|------------------------------------------------------------------|
pride in each ledger.              And the Germans killed the Jews

                                             G   
e-|------------------------------------------------------------------|
B-|-----0------------------------------------------------------------|
G-|---------------------2--------------------0-----------------------|
D-|-----------------------------------------------------------4------|
A-|------------------------------------------------------------------|
E-|------------------------------------------------------------------|
   And the Jews killed the Arabs,    and the Arabs killed the hostages

                                                 A
e-|------------------------------------------------------------------|
B-|------------------------------------------------------------------|
G-|--------------------0-0-----------------------2-------------------|
D-|--2---------------------4-4-2-2---------------2-------------------|
A-|-------------5------------------5-5-2---------0-------------------|
E-|------------------------------------------------------------------|
And that is the news                           And is it any wonder

                                                     D
e-|------------------------------------------------------------------|
B-|---------2-------------------2------------------------------------|
G-|---------2-------------------2------------------------------------|
D-|---------2-------------------2-----------------2--0---------------|
A-|---------0-------------------0--------------0---------------------|
E-|---------0-------------------0------------------------------------|
   That the monkey's confused                     He said Mama, Mama


e-|------------------------------------------------------------------|
B-|-------------------------------3--------2-------------0-----------|
G-|------------------------------------------------------------------|
D-|------------------------------------------------------------------|
A-|------------------------------------------------------------------|
E-|------------------------------------------------------------------|
    The President's a fool,       why do I have to keep reading these

               G
e-|------------------------------------------------------------------|
B-|----------------------3---------------0---------------------------|
G-|--2---------0---------0------------------------------2------------|
D-|----------------------0-------------------------------------------|
A-|-------------------------0---2---0--------------------------------|
E-|------------------------------------------------------------------|
    technical manuals,         And the joint chiefs of staff and the 

                                           C
e-|------------------------------------------------------------------|
B-|-------------------------0--------------1-----------0-------------|
G-|---0--------0-----2---------------------0-----------0-------------|
D-|----------------------------------------2-----------2-------------|
A-|------------------------------------------------------------------|
E-|------------------------------------------------------------------|
    brokers on Wall Street said,        don't make us laugh you're a

                                                        F
e-|------------------------------------------------------------------|
B-|------------------------------------------------------------------|
G-|--2--------0---1---1---0------2----------0------------------------|
D-|--0--------------------------------------------------3------------|
A-|------------------------------------------------------------------|
E-|------------------------------------------------------------------|
    smart kid,   time is linear, memory is a stranger,  history's for 


e-|------------------------------------------------------------------|
B-|--------------------------------1---------------------------------|
G-|--------------------------------2---------------------------------|
D-|--2-------0---------------------3---------------------------------|
A-|-------------------3------------3---------------------------------|
E-|--------------------------------1---------------------------------|
    fools,   Man is a tool in the hands of the great God Almighty

             G
e-|----------3------------------------------------------3------------|
B-|----------3------------------------------------------3------------|
G-|----------0------------------------------------------0------------|
D-|----------0------------------------------------------0------------|
A-|----------2------------------------------------------2------------|
E-|----------3------------------------------------------3------------|         
   And they gave him command of a nuclear submarine and sent him back 

                                 C
e-|------------------------------0--------------------------|
B-|------------------0-----------1--------------------------|
G-|------------------------------0--------------------------|
D-|-----2----------------2--2----2--------------------------|
A-|------------------------------3--------------------------|
E-|---------------------------------------------------------|             
    in search of the Garden of Eden.
            

comments powered by Disqus
↑ Back to top | Waters Roger Tabs for Perfect Sense. Lyrics for acoustic guitar and electric guitar. Tablatures and chords are parodies/interpretations of the original songs. You may use it for private study, scholarship, research or language learning purposes only