» » »

Watermark, Captivate Us Tabs (ver.2)

Artists:  A B C D E F G H I J K L M N O P Q R S T U V W X Y Z # 

Captivate Us Tabs (ver.2)

Watermark Tabs
 Rating:
4/5 (4 votes)
Captivate Us lessons Tabs too difficult? Try these video lessons and learn fast
                Captivate Us
Words and Music by Charlie Hall and
Nathan and Christy Nockels

This tab is based on the piano music for the song.

Capo 1st fret (G => A flat)
Gently (Q = 100)

Intro (2x):
  Em7     Bm/D      C2                 Gm/B    D7sus/A   G
|3-----3-2-----2-|0-------0--------|----------------|----------------|
|----3-------3---|------3----------|3-----3-1-------|0-------3-------|
|--0-------0-----|----0------------|----0-----0---0-|------0---------|
|2-------0-------|--2--------------|--0---------0---|----0-----------|
|----------------|3----------------|1-------0-------|--2-------------|
|----------------|-----------------|----------------|3---------------|

Verse:
 G                D/F#              A7sus/E          Bm sus
||o -------------|-----------------|----------------|0-------0-------|
||  3-----3------|3-----3----------|3-----3---------|------3---------|
||  ----0--------|----0------------|----2-----------|----4-----------|
||  --0----------|--4--------------|--0-------------|--4-------------|
||  -------------|-----------------|----------------|2---------------|
||o 3------------|2----------------|0---------------|----------------|

C                 G                 C                D       C
|0-----0---------|-----------------|0-----0---------|2---3p2-0---0---|
|----------------|3-----3----------|----------------|--------------1-|
|----0-----------|----0------------|----0-----------|--2-------0-----|
|--2-------------|--0--------------|--2-------------|0---------------|
|3---------------|-----------------|3---------------|--------3-------|
|----------------|3----------------|----------------|----------------|

 G                D/F#              A7sus/E          Bm
|----------------|-----------------|----------------|0-----0---------|
|3-----3---------|3-----3----------|3-----3---------|----------------|
|----0-----------|----0------------|----2-----------|----4-----------|
|--0-------------|--4--------------|--0-------------|--4-------------|
|----------------|-----------------|----------------|2---------------|
|3---------------|2----------------|0---------------|----------------|

 C                G                 C       D/A      G       C/E
|0-----0---------|----------------|0-----0---------|----------------|
|----1-----------|3-----3---------|--------3-----3-|--------3-------|
|--0-------------|----0-----------|----0-------2---|0-----0---0---0-|
|----------------|--0-------------|--2-------4-----|----0-------2---|
|3---------------|----------------|3-------0-------|--2-------------|
|----------------|3---------------|----------------|3-------0-------|

Chorus:           &
 G                C                 D                B7
|3---------------|0-----0-------0-|2-----2-------2-|2-----2-------2-|
|3---------------|----1-------1---|----3-------3---|----4-------4---|
|0---------------|--0-------0-----|--2-------2-----|--3-------3-----|
|0---------------|----------------|0---------------|----------------|
|2---------------|3---------------|----------------|2---------------|
|3---------------|----------------|----------------|----------------|
   
 Em               C                D                G
|3-----3-------3-|0-----0-------0-|2-----2-------2-|----------------|
|----------------|----1-------1---|----3-------3---|--------3-----3-|
|----0-------0---|--0-------0-----|--2-------2-----|0-----0---------|
|--2-------2-----|----------------|0---------------|----0-------0---|
|----------------|3---------------|----------------|--2-------------|
|0---------------|----------------|----------------|3-------0-0-----|

 G       G/B      C                D                B7    
|----------------|0-----0-------0-|2-----2-------2-|2-----2-------2-|
|--------3-----3-|----1-------1---|----3-------3---|----4-------4---|
|0-----0-----0---|--0-------0-----|--2-------2-----|--3-------3-----|
|----0-----0-----|----------------|0---------------|----------------|
|--2-----2-------|3---------------|----------------|2---------------|
|3---------------|----------------|----------------|----------------|

 Em               Em               C                D     3rd time to CODA
|3-----3-------3-|3---------------|0---------------|2-----2---------|
|----------------|3---------------|------0-------0-|----3-----------|
|----0-------0---|0---------------|----0-------0---|--2-------------|
|--2-------2-----|2---------------|--2-------2-----|0---------------|
|----------------|2---------------|3---------------|----------------|
|0---------------|0---------------|----------------|----------------|

_____________________________________________________________________
|1. (Same as intro)
 Em7     Bm7      C                Gm/B    D7sus/A  G
|3-----3-2-----2-|0-------0-------|----------------|-------------- o|
|----3-------3---|------3---------|3-----3-1-------|0-------3-----  |
|--0-------0-----|----0-----------|----0-----0---0-|------0-------  |
|2-------0-------|--2-------------|--0---------0---|----0---------  |
|----------------|3---------------|1-------0-------|--2-----------  |
|----------------|----------------|----------------|3------------- o|

__________________
|2.                                Bridge:
 G       G2       G       G/B      C                D
|----------------|---------------||0-----0-------0-|2-----2-------2-|
|0-----0---------|0-----0-3-----3||----1-------1---|----3-------3---|
|--------2-----2-|------------0--||--0-------0-----|--2-------2-----|
|----0-------0---|----0-----0----||----------------|0---------------|
|--2-------2-----|--2-----2------||3---------------|----------------|
|3---------------|3--------------||----------------|----------------|

 Gm      D/F#     G                C                D
|----------------|----------------|0-----0-------0-|2-----2-------2-|
|3-----3-------3-|------3-------3-|----1-------1---|----3-------3---|
|----0-------0---|----0-------0---|--0-------0-----|--2-------2-----|
|--0-------4-----|--0-------0-----|----------------|0---------------|
|1---------------|--------2-------|3---------------|----------------|
|--------2-------|3---------------|----------------|----------------|

 G       D/F#     G                C                D
|----------------|----------------|0-----0-------0-|2-----2-------2-|
|3-----3-3-----3-|------3-------3-|----1-------1---|----3-------3---|
|----3-------0---|----0-------0---|--0-------0-----|--2-------2-----|
|--0-------4-----|--0-------0-----|----------------|0---------------|
|1---------------|--------2-------|3---------------|----------------|
|--------2-------|3---------------|----------------|----------------|

 G       D/F#     Em7              F2 
|----------------|----------------|0-------0-------|0-------0-------|
|3-----3-------3-|------3-------3-|------1-------1-|------1---------|
|----0-------0---|----0-------0---|----0-------0---|----0-----------|
|--0-------4-----|--0-------0-----|--0-------0-----|--0-------------|
|----------------|----------------|----------------|----------------|
|3-------2-------|0---------------|1-------1-------|1---------------|

 C2    G          C2      G      D.S. al Coda (&)
|----------------|---------------||
|1-----0---------|0-----1-0------||
|----0-----------|----0----------||
|------0---------|--------0------||
|--3-------------|--3------------||
|3---------------|3--------------||


Coda:
 C2               G/B              Am7(4)           Dsus
|----------------|----------------|----------------|2-----2---------|
|3-----3-------3-|------3-------3-|------1-------1-|----3-----------|
|----0-------0---|----0-------0---|----0-------0---|--0-------------|
|--2-------2-----|--0-------0-----|--2-------2-----|0---------------|
|3---------------|2---------------|0---------------|----------------|
|----------------|----------------|----------------|----------------|

 C2               G/B              Am7              D4
|----------------|----------------|----------------|2-----2---------|
|3-----3-------3-|------3-------3-|1-----1-------1-|----3-----------|
|----0-------0---|----0-------0---|----0-------0---|--0---------0---|
|--2-------2-----|--0-------0-----|--2-------2-----|0---------4---4-|
|3---------------|2---------------|0---------------|----------------|
|----------------|----------------|----------------|----------------|

 D4 (tied notes)  Em7     Bm/D     C2               G
|L2--------------|3-----3-2-----2-|0-------0-------|----------------|
|----------------|----3-------3---|------3---------|0-------3-------|
|----------------|--0-------0-----|----0-----------|------0---------|
|L4--------------|2-------0-------|--2-------------|----0-----------|
|----------------|----------------|3---------------|--2-------------|
|----------------|----------------|----------------|3---------------|

 Gm/B    D7sus/A  C2               Gm/B    D7sus/A  G
|----------------|0-------0-------|----------------|----------------||
|3-----3-1-------|------3---------|3-----3-1-------|0-------3-------||
|----0-----0---0-|----0-----------|----0-----0---0-|------0---------||
|--0---------0---|--2-------------|--0---------0---|----0-----------||
|1-------0-------|3---------------|1-------0-------|--2-------------||
|----------------|----------------|----------------|3---------------||


Leadsheet:
Verse 1:
G                   D/F#            A7sus/E                 Bm7(4)
   Your face is beautiful, and Your eyes are like the stars.
C                             G    C                      D  C
   Your gentle hands have healing, there inside the scars.
G                            D/F#
   Your loving arms they draw me near, and
        A7sus/E                  Bm7
   Your smile it brings me peace.
C                    G                  C            D        G  C/G
   Draw me closer, oh, my Lord. Draw me closer, Lord, to Thee.

Chorus:          &
G                C            D   B7                  Em
     And captivate us, Lord Jesus; set our eyes on You.
              C                 D                   G    C/G
     Devastate us with Your presence, falling down.
G         G/B       C               D
     And rushing river, draw us nearer.
          B7                  Em
     Holy fountain, consume us with You.
              C           D               
     Captivate us, Lord Jesus, with You.

   1st ending: Em7  Bm/D  D2    Gm/B  D7sus/A  G


Verse 2:
Your voice is powerful, and Your words are radiant bright.
In Your breath and shadow, I will come close and abide.
You whisper love and life divine, and Your fellowship is free.
Draw me closer O my Lord. Draw me closer Lord to Thee.

Repeat Chorus.
   2nd ending: G  G2

Bridge:
G        G/B           C                  D 
     And let everything be lost In the shadows 
             Gm/B    D/A         
      of the light of Your face.
G        G/B            C              D
     And let ev'ry chain be broken from me 
            Gm/B     D
      as I'm bound in Your grace.
G                 G/B            D
     For Your yoke is easy, Your burden is light
         G           D/F#      Em7  
   You're full of wisdom, pow'r, and might,
      FM9                C/G  G     
   And ev'ry eye will see You.
   
Repeat Chorus.
   3rd ending: C2
   
Coda:
G/B            Am7(4)      Dsus          C2
      Captivate Us, Lord Jesus, with You.
G/B            Am7         D(add4)
      Captivate us.
Em7  Bm/D  C2    Gm/B  D7sus/A  G    
Em7  Bm/D  C2    Gm/B  D7sus/A  G
      
            
Submit corrections

comments powered by Disqus
↑ Back to top | Watermark Tabs for Captivate Us. Lyrics for acoustic guitar and electric guitar. Tablatures and chords are parodies/interpretations of the original songs. You may use it for private study, scholarship, research or language learning purposes only