>
 >
Social Fears

Social Fears Guitar Tabs

Watchtower - Social Fears chords, tabs, tablatures, lyrics

Guitar lessons | Add/correct | Request | Top 50 tabs Artists:  A B C D E F G H I J K L M N O P Q R S T U V W X Y Z 0-9

Social Fears Guitar Tabs – Watchtower

CD, Sheet music, Poster

Do you like Social Fears? Share with your friends now
Tabs
 Intro a - 0:15 x3
|--------------------------------------------------------------------|
|--------------------------------------------------------------------|
|------------------------------------------------------------------4-|
|-------7-8\--4-5-4----2-3-2-----------3-4-3-----------------------3-|
|---7-8-------------6--------4-3-2-1~--------5-4-3-2~---2------2-3---|
|-0-------------------------------------------------------3-0--------|

 Intro b
|--------------------------------------------------------|
|--------------------------------------------------------|
|--------------------------------------------------------|
|-------7-8\--4-5-4----2-3-2-----------3-4-3-------------|
|---7-8-------------6--------4-3-2-1~--------5-4-3-2~----|
|-0------------------------------------------------------|


 Verse 1a - 0:43
|---------------------------------|---------------------------------|
|---------------------------------|---------------------------------|
|-------9---9---------------------|-------9---9---------------------|
|-8-----7---7---2-----------------|-8-----7---7---2-------------9-9-|
|-6-----5---5-0-0-----------------|-6-----5---5-0-0---------9---9-9-|
|---0-0------------4-2-0--2--2-2--|----00------------4-5-0--7---7-7-|
    ___            _____               __            _____


 Verse 1b
|---------------------------------|---------------------------------|
|---------------------------------|---------------------------------|
|-------9---9---------------------|-------9---9---------------------|
|-8-----7---7---2-----------------|-8-----7---7---2-----------------|
|-6-----5---5-0-0---------4--4/6--|-6-----5---5-0-0---------9-9-9-9-|
|----00------------4-2-0--2--2/4--|----00------------4-5-0--7-7-7-7-|
     __            _____               __            _____  _______


 Verse 2a - 0:54
|----------------------------------|--------------------------------|
|----------------------------------|--------------------------------|
|----------------------------------|--------------------------------|
|-----7-----8----------------------|-----7-----8---5---5------------|
|-----5-----6---8---8-----3--------|-----5-----6---3---3-----3------|
|-0-0---0-0---0-6---6-0-0---2-2hb~-|-0-0---0-0---0-------0-0---4/-\-|
  ___   ___   _       ___   * *      ___   ___   _       ___   *


 Verse 2b
|----------------------------------|--------------------------------|
|----------------------------------|--------------------------------|
|----------------------------------|------------------...previous---|
|-----7-----8----------------------|-----7----------------idealogy!-|
|-----5-----6---8---8-----3--------|-----5-----6/8--8---------------|
|-0-0---0-0---0-6---6-0-0---2-2hb~-|-0-0---0-0------6---------------|
  ___   ___   _       ___   * *      ___   ___   _


 Repeat verse 2a


 Verse 2c - 1:11
|------------------------------|-------------------------------|
|------------------------------|-------------------------------|
|------------------------------|-------------------------------|
|----7----8--------------------|----7----8------------5--------|
|----5----6---8---8----3-------|----5----6---8--8-4-8---5------|
|-00---00---0-6---6-00--2-2hb~-|-00---00---0--------------8-6--|
  __   __   _       __           __   __          _       ___


 Riff 1a x2 - 1:16
|-------------------------------|--------------------------------|
|-------------------------------|--------------------------------|
|-------------------------------|--------------------------------|
|-------7-------8-------5-----5-|-4--------------3-2-------------|
|-------5-------6-------3---2---|------3-2-1---0-----------------|
|-0-2-4-----3-5-----0-2---------|--------------------3-3-3/5-0-3-|
  _____     ___     ___     _          ___         * ___       *


 Riff 1b (two notes altered from a)
|-------------------------------|--------------------------------|
|-------------------------------|--------------------------------|
|-------------------------------|----------------3-2-------------|
|-------7-------8-------5-----5-|-4------------------------------|
|-------5-------6-------3---2---|------3-2-1---0-----------------|
|-0-2-4-----3-5-----0-2---------|--------------------3-3-3/5-0-3-|
  _____     ___     ___     _     *    ___           ___


 Repeat Riff 1 - 1:32 "WHAAAAAAAAAAAAAWW!!!"

 Repeat Verse 1a - 1:37


 Verse 1b - 1:43 (altered time sig in first bar)
|----------------------------|---------------------------------|
|----------------------------|---------------------------------|
|-------9---9----------------|-------9---9---------------------|
|-8-----7---7---2---------4--|-8-----7---7---2-----------------|
|-6-----5---5-0-0---------4--|-6-----5---5-0-0---------9-9-9-9-|
|----00------------4-2-0--2--|----00------------4-5-0--7-7-7-7-|
     __            _____          __       _    _____  _______


 Verse 1c
|-----------------------------------|---------------------------------|
|-----------------------------[5]---|---------------------------------|
|-------9---9--------------[5]------|-------9---9---------------------|
|-8-----7---7---2--------5----------|-8-----7---7---2---------6---6---|
|-6-----5---5-0-0-------------------|-6-----5---5-0-0---------3---3-0-|
|----00------------4-2-0------------|----00------------4-5-0----------|
     __            _____                 __            _____      ___


                                                2:31
|-------------------------|                    |-----------------1----|
|-------------------------|                    |-----------------1----|
|-------------7-----------|                    |----------------------|
|---5h8p5-----7--------8--|                    |----------------------|
|-0-------7---5--4-----8--|                    |-4-----5-5------------|
|------------------7-5-6--|                    |---3-3-----4-4-1----1-|
  _       _


 Repeat Riff 1a x2
 Repeat Riff 1b - 2:44


 Riff 1c
|-------------------------------|--------------------------------|
|-------------------------------|--------------------------------|
|-------------------------------|----------------2-3-------------|
|-------7-------8-------5-----5-|-4------------------------------|
|-------5-------6-------3---2---|------3-2-1---0-----------------|
|-0-2-4-----3-5-----0-2---------|--------------------3-3-3/5-0-3-|
  _____     ___     ___     _          ___           ___


 Repeat Verse 1a
 Repeat Verse 1b (altered/shortened time sig)
 Repeat Verse 1c


 3:09
|------------------------------------|-----------------------|
|------------------------------------|-----------------------|
|-------------7----------------------|-----------------------|
|---5h8p5-----7--------8-------------|----------------5-7-9--|
|-0-------7---5--4-----8----5-4------|--5-------5-7-8--------|
|------------------6-5-6--------7-5--|----5-7-8--------------|
  _       _


|---------------|---------------------|
|---------------|---------------------|
|---------------|---------------------|
|--------0-2-3--|-2----2----2----2----|
|--0-2-3--------|-2----2----2----2----|
|---------------|-0----0----0----0----|


 Repeat Intro a x3
 Repeat Intro b


 Verse 3a - 3:48
|---------------------------------------------------------------------------|
|---------------------------------------------------------------------------|
|---------------------------------13--13------7---7----8--------------------|
|-----9-----10-----9-----10-------13--13------7---7--7-8--------------------|
|-----7-----8------7-----8--------11--11------5---5--5-6---5-0-0-0-5-4hbr---|
|-0-0---0-0----0-0---0-0----0-0-0----------0--------------------------------|
  ___   ___    ___   ___    _____          _               _______ * *


 Verse 3b
|---------------------------------------------------------------------------|
|---------------------------------------------------------------------------|
|---------------------------------13--13------7---7----8--------------------|
|-----9-----10-------9-----10-----13--13------7---7--7-8-----------6-7/\/\--|
|-----7-----8--------7-----8------11--11------5---5--5-6---5-0-0-0----------|
|-0-0---0-0----0-0-0---0-0----0-0----------0--------------------------------|
  ___   ___    _____   ___    ___          _               _______


 Repeat Verse 3a - 3:58


|---------------------------------------------------------------------------|
|---------------------------------------------------------------------------|
|---------------------------------13--13------7---7----8-----------7-6/\/\--|
|-----9-----10-------9-----10-----13--13------7---7--7-8--------------------|
|-----7-----8--------7-----8------11--11------5---5--5-6---5-0-0-0----------|
|-0-0---0-0----0-0-0---0-0----0-0----------0--------------------------------|
  ___   ___    _____   ___    ___          _               _______ *


 Repeat verse 3a - 4:08
 Repeat verse 3b


 4:18
|------------------------------------------------------------------------|
|------------------------------------------------------------------------|
|---------------------------------13--13------7---7----8-----------------|
|-----9-----10-----9-----10-------13--13------7---7--7-8-----------------|
|-----7-----8------7-----8--------11--11------5---5--5-6---5-0-0-0-0-0-0-|
|-0-0---0-0----0-0---0-0----0-0-0----------0-----------------------------|
  ___   ___    ___   ___    _____          _               _____________


|--------------------------------------|
|--------------------------------------|
|--------------------------------------|
|-----9-----10-------9-----10-------8--|
|-----7-----8--------7-----8--------8--|
|-0-0---0-0----0-0-0---0-0----0-0---6--|
  ___   ___    _____   ___    ___


Repeat Intro a


 Ending
|-----------------------------------------------------|
|-----------------------------------------------------|
|-----------------------------------------------------|
|-------------------------------------------0-2-3--2--|
|-4-3---------5-------5-7-8-6-4-------0-2-3--------2--|
|-----6-5-------5-7-8-----------7------------------0--|





Comments


Popular Watchtower tabs & chords
Control And Resistance Bass Tabs
Danger Toy Bass Tabs
Instruments Of Random Murder Bass Tabs
The Eldritch Bass Tabs
A Lost Generation Tabs
Forever Cold Tabs


Song lyrics



↑ Back to top | Tablatures and chords are parodies/interpretations of the original songs. You may use it for private study, scholarship, research or language learning purposes only
© 2014 AZChords.com Contact us | Privacy policy | DMCA | Add/correct tabs | Request tabs | Top 50 tabs