>
 >
Control And Resistance

Control And Resistance Bass Tabs

Watchtower - Control And Resistance chords, tabs, tablatures, lyrics

Guitar lessons | Add/correct | Request | Top 50 tabs Artists:  A B C D E F G H I J K L M N O P Q R S T U V W X Y Z 0-9

Control And Resistance Bass Tabs – Watchtower

CD, Sheet music, Poster

Do you like Control And Resistance? Share with your friends now
Bass Tabs

CONTROL & RESISTANCE (Bassline)
As recorded by Watchtower
(From the 1989 Album CONTROL & RESISTANCE)

	

Words by White Music by White/Keyser
Arranged by Watchtower

Gtr I (B E A D G) - 'Untitled'

   Intro
    Q=140                                               Q=Q=Q=Q=Q=Q=80
   4/4                                                     2/4
    Gtr I
    E E E E E E E E   E E E E E E E E  4x E E E E E E E E   E E E E
||------------------|---------------8--||---6-5-----6-5---|-----2---|
||o-----8-----8---8-|-----8---8-6-7---o||-8-----8-7-----8-|---3---3-|
||----8-----8-------|---8--------------||-----------------|-6-------|
||o-6-----6-----6---|-6-----6---------o||-----------------|---------|
||------------------|------------------||-----------------|---------|


  Q=100
 4/4
                                                       >
                                      |-3-|
  E E E E E E E E   E E E E E E E E   Q Q Q  H        +W            Wx2
|-----3-4-----3-4-|---------------4-|--------------|--------------|--------|
|-----------------|-------4-5-4-6---|--------------|--------------|--------|
|-----------------|-----7-----------|-------<7>----|-(<7>)--------|--------|
|-7-3-----7-3-----|-7-3-------------|-----4--------|--------------|--------|
|-----------------|-----------------|-3h5----------|--------------|--------|


  Q=90
 11/8              2/8  4/4                         2/4
  S S W        Q    Q    S S S S E. S E. S S S S S   S  E. E E
|-----------------|----|-----------------7---7-----|------------|
|-----------------|----|---------------------------|------------|
|-----------------|----|-------------------5---5-5-|------------|
|-3-3-------------|----|-3-3-3-3----4--------------|---------5\-|
|-----------------|----|---------------------------|-5\---------|


 11/8                                          2/8
  S S S S S S S S S S S S S S S S S S S S S S   S S S S
|-----------------3---3-----------3-----------|---------|
|-------5-----------------------------4-------|-----4---|
|-----5---------1---1---1---------------------|---4-----|
|-3-3-------3-3-------------3-3-3-------2-2-2-|-2-------|
|---------------------------------------------|---------|


 11/8                                          2/8
  S S S S S S S S S S S S S S S S S S S S S S   S S S S
|-----------------3---3-----------3-----------|-3-------|
|-------5-----------------------------4-------|---------|
|-----5---------1---1---1---------------------|-----4---|
|-3-3-------3-3-------------3-3-3-------2-2-2-|---2-----|
|---------------------------------------------|---------|


 11/8                                          2/8
  S S S S S S S S S S S S S S S S S S S S S S   S S S S
|---------------------------------------------|---------|
|---------------------------------------------|---------|
|-------------5---5-----5---------------5---5-|-----5---|
|-3-3-3-3-3-4---4---4-4---4-3-3-3-3-3-4---4---|-4-4---4-|
|---------------------------------------------|---------|


 11/8                                          2/8
  S S S S S S S S S S S S S S S S S S S S S S   S S S S
|---------------------------------------------|---------|
|---------------------------------------------|---------|
|-------------5---5-----5---------------5---5-|-----5---|
|-3-3-3-3-3-4---4---4-4---4-3-3-3-3-3-4---4---|-4-4---4-|
|---------------------------------------------|---------|


                                          Q
 7/8
  S S S S S T T T T T T S S +S  S T T T T
|-----------------------------------------|
|-----------------------------------------|
|---------------6-6-----5---------5-5-----|
|-3-3-3-3-3-5-5-----4-4---4-(4)-3-----4-4-|
|-----------------------------------------|


 =160
   4/4
    E S S S S E  S S S S Q    +E   S S  S  S  S  S  S S  S  S  Q     3x
||--------------------------|----------12-11-10-11-10-9-10-11-10-----||
||o-------------------------|-----10-9------------------------------o||
||--------------------------|----------------------------------------||
||o-0-0-0-0-0-7\-0-0-0-0-8--|-(8)-----------------------------------o||
||--------------------------|----------------------------------------||


  E S S S S E  S S S S Q    +E   S S  S  S  S  S  S S  S  S  E  S S
|-------------------------|----------12-11-10-11-10-9-10-11-10------|
|-------------------------|-----10-9--------------------------------|
|-------------------------|------------------------------------10-9-|
|-0-0-0-0-0-7\-0-0-0-0-8--|-(8)-------------------------------------|
|-------------------------|-----------------------------------------|


   S S S S S E. S S S S S S S S   S E. H.
|-------------------------------|-8----------|
|-10-9-8-9-8--------------9-8-7-|------------|
|-------------------9-8-7-------|------------|
|---------------8-7-------------|------------|
|-------------------------------|------------|


    E S S S S E  S S S S Q
||--------------------------|
||o-------------------------|
||--------------------------|
||o-0-0-0-0-0-7\-0-0-0-0-8--|
||--------------------------|


  +E   S S  S  S  S  S  S S  S  S  Q      E S S S S E  S S S S Q
|----------12-11-10-11-10-9-10-11-10---||--------------------------|
|-----10-9----------------------------o||--------------------------|
|--------------------------------------||--------------------------|
|-(8)---------------------------------o||-0-0-0-0-0-7\-0-0-0-0-8---|
|--------------------------------------||--------------------------|


  +E   S S  S  S  S  S  S S  S  S  E  S S
|----------12-11-10-11-10-9-10-11-10------|
|-----10-9--------------------------------|
|------------------------------------10-9-|
|-(8)-------------------------------------|
|-----------------------------------------|


   S S S S S E. S S S S S S S S   S E. H.
|-------------------------------|-8----------|
|-10-9-8-9-8--------------9-8-7-|------------|
|-------------------9-8-7-------|------------|
|---------------8-7-------------|------------|
|-------------------------------|------------|


   Verse
    S S S S S S Q  S S S S S S  3x
||------------------------------||
||o----------------------------o||
||--4-4-4-4-4-4-----------------||
||o-------------5--5-5-5-5-5-5-o||
||------------------------------||


 9/8                                    7/8
  S S S S S S S S S S S S S S S S S S    H..
|-------------------------------------||--------|
|-------------------------------------||--------|
|-9-8-7-9-8-7-6-7-8-7-6-5-6-7-6-5-4-3-||--------|
|-------------------------------------||-3------|
|-------------------------------------||--------|


   4/4
    S S S S S S Q  S S S S S S  3x
||------------------------------||
||o----------------------------o||
||--4-4-4-4-4-4-----------------||
||o-------------5--5-5-5-5-5-5-o||
||------------------------------||


 9/8                                    7/8
  S S S S S S S S S S S S S S S S S S    H..
|-------------------------------------||--------|
|-------------------------------------||--------|
|-7-6-5-7-6-5-4-5-6-5-4-3-4-5-4-3-2-1-||--------|
|-------------------------------------||-3------|
|-------------------------------------||--------|


   4/4
    S S S S S S Q  S S S S S S  3x
||------------------------------||
||o----------------------------o||
||--4-4-4-4-4-4-----------------||
||o-------------5--5-5-5-5-5-5-o||
||------------------------------||


 9/8                                    7/8
  S S S S S S S S S S S S S S S S S S    S E E. q  E E
|-------------------------------------||-----------------|
|-------------------------------------||--------5----5---|
|-9-8-7-9-8-7-6-7-8-7-6-5-6-7-6-5-4-3-||-----------------|
|-------------------------------------||-3---------------|
|-------------------------------------||-----------------|


   4/4                            9/8                                    4/4
    S S S S S S Q  S S S S S S  3x S S S S S S S S S S S S S S S S S S    W
||------------------------------||-------------------------------------||------|
||o----------------------------o||-------------------------------------||------|
||--4-4-4-4-4-4-----------------||-7-6-5-7-6-5-4-5-6-5-4-3-4-5-4-3-2-1-||------|
||o-------------5--5-5-5-5-5-5-o||-------------------------------------||-3----|
||------------------------------||-------------------------------------||------|


    E S S S S E  S S S S Q    +E  S S  S S S S S S S S Q   3x
||--------------------------|------------------------------||
||o-------------------------|-----------------------------o||
||--------------------------|---------10-9-8-9-8-7-8-9-8---||
||o-0-0-0-0-0-7\-0-0-0-0-8--|-(8)-8-7---------------------o||
||--------------------------|------------------------------||


                                    H.=H
  E S S S S E  S S S S Q    +E  S S  S S S S S S E S S S S
|-------------------------|-----------------------------------|
|-------------------------|-----------------------------------|
|-------------------------|---------10-9-8-9-8-7-8------------|
|-0-0-0-0-0-7\-0-0-0-0-8--|-(8)-8-7----------------5-4-3-2----|
|-------------------------|-----------------------------------|


   Chorus
    Q=100
   7/8                                         9/8
    E S S E S S E S S E   E S S E S S E S S E   E S S E S S E S S e E E
||----------------------|---------------------|---------------------------||
||o---------------------|---------------------|--------------------------o||
||----------------------|---------------------|---------------------------||
||o-2-2-2-2-2-2-2-2-2-3-|-2-2-2-2-2-2-2-2-2-3-|-2-2-2-2-2-2-2-2-2-3---3--o||
||----------------------|---------------------|---------------------------||


 7/8
  E S S E S S E S S E   E S S E S S E S S E
|---------------------|---------------------|
|---------------------|---------------------|
|---------------------|---------------------|
|-2-2-2-2-2-2-2-2-2-3-|-2-2-2-2-2-2-2-2-2-3-|
|---------------------|---------------------|


 11/8
                    |-3-| |-3-|
  E S S E S S E S S S S S S S S E E E
|--------------------------------------|
|--------------------------------------|
|--------------------------------------|
|-2-2-2-2-2-2-2-2-2-2---2---2---3---3--|
|--------------------------------------|


 7/8                                         12/8
  E S S E S S E S S E   E S S E S S E S S E   E S S E S S E S S E E E E E E
|---------------------|---------------------|--------------------------------|
|---------------------|---------------------|--------------------------------|
|---------------------|---------------------|--------------------------------|
|-2-2-2-2-2-2-2-2-2-3-|-2-2-2-2-2-2-2-2-2-3-|-2-2-2-2-2-2-2-2-2-3---3---3----|
|---------------------|---------------------|--------------------------------|


   Pre-Verse
    Q=110
   4/4
    S S S S S S S E S S S S S S S  4x
||---------------------------------||-|
||o---6-----6-----9---6-----6-----o||-|
||------7-----7---------7-----7----||-|
||o-9-----9-----9---9-----9-----9-o||-|
||---------------------------------||-|


     S S  S  S S  S  S  E  S S  S  S S  S  S
||---------------------------------------------||
||o----9-------9-------12----9-------9--------o||
||-------10------10------------10------10------||
||o-12------12------12----12------12------12--o||
||---------------------------------------------||


     S  S  S  S  S  S  S  E  S  S  S  S  S  S  S
||------------------------------------------------||-|
||o----11-------11-------14----11-------11-------o||-|
||--------12-------12-------------12-------12-----||-|
||o-14-------14-------14----14-------14-------14-o||-|
||------------------------------------------------||-|


     S  S  S  S  S  S  S  E  S  S  S  S  S  S  S
||-------------------------------------------------||
||o----15-------15-------18----15-------15--------o||
||--------16-------16-------------16-------16------||
||o-18-------18-------18----18-------18-------18--o||
||-------------------------------------------------||


                         Verse
 5/8                     4/4
  S S S S S S S S S S     S S S S S S S E S S S S S S S  4x
|---------------------||----------------6----------------||
|---------6-5-4-5-6-7-||o-------------------------------o||
|---6-5-4-------------||--4-4-4-4-4-4-4---4-4-4-4-4-4-4--||
|-5-------------------||o-------------------------------o||
|---------------------||---------------------------------||


      S S S S S S S E S S S S S S S
|-||----------------7-----------------||
|-||o--------------------------------o||
|-||--5-5-5-5-5-5-5---5-5-5-5-5-5-5---||
|-||o--------------------------------o||
|-||----------------------------------||


                                                      ~~~~
  S S S S S S S  E S S S S S S S   S S S S S S S  S  +Q     S    S    S    S
|---------------10---------------|---------------10-(10)--(10)-(10)-(10)-(10)-|
|--------------------------------|--------------------------------------------|
|-8-8-8-8-8-8-8----8-8-8-8-8-8-8-|-8-8-8-8-8-8-8------------------------------|
|--------------------------------|--------------------------------------------|
|--------------------------------|--------------------------------------------|


    S S S S S S S E S S S S S S S
||------------------------------------||
||o----------------------------------o||
||------------------------------------||
||o-6-6-6-6-6-6-6-4-6-6-6-6-6-6-6----o||
||------------------------------------||


                         Verse
 5/8                     4/4
  S S S S S S S S S S     S S S S S S S E S S S S S S S
|---------------------||----------------6-6-6-6---------|
|---------6-5-4-5-6-7-||o-------------------------------|
|---6-5-4-------------||--4-4-4-4-4-4-4---------4-4-4-4-|
|-5-------------------||o-------------------------------|
|---------------------||--------------------------------|


  S S S S S S S E S S S S S S S         S S S S S S S E S S S S S S S
|---------------6---6---6--------||-||----------------7-------------------||
|-------------------------------o||-||o----------------------------------o||
|-4-4-4-4-4-4-4---4---4-4-4-4-4--||-||--5-5-5-5-5-5-5---5-5-5-5-5-5-5-----||
|-------------------------------o||-||o----------------------------------o||
|--------------------------------||-||------------------------------------||


    S S S S S S S  E S S S S S S S         S S S S S S S E S S S S S S S
||----------------10----------------||-||----------------------------------||
||o--------------------------------o||-||o--------------------------------o||
||--8-8-8-8-8-8-8----8-8-8-8-8-8-8--||-||----------------------------------||
||o--------------------------------o||-||o-6-6-6-6-6-6-6-4-6-6-6-6-6-6-6--o||
||----------------------------------||-||----------------------------------||


                        Interlude
                      Q=90
 5/8                    11/8
  S S S S S S S S S S    S S S S S S S S S S S S S S S S S  S S  S S S
|---------------------||-----------------------------------------------|
|---------6-5-4-5-6-7-||-----7---7-----8---8-----7---7-----10---10-----|
|---6-5-4-------------||-----------------------------------------------|
|-5-------------------||-5-5---5---5-5---6---6-6---5---5-5----8----8-8-|
|---------------------||-----------------------------------------------|


 10/8
  S S S S S S S S S S S S S S S  S S  S S S
|---------------------------------------------|
|-7---7-----8---8-----7---7-----10---10-------|
|---------------------------------------------|
|---5---5-5---6---6-6---5---5-5----8----8-8---|
|---------------------------------------------|


   Guitar Solo
   7/8
    T       T       T       T       T       T        T
    T T T T T T T T T T T T T T T T T T T T T T T T  E
||------------------------------------------------------||
||o----------------------------------------------------o||
||--9-7p5p4-9-7p5p4-9-7p5p4-9-7p5p4-9-7p5p4-9-7p5p4-10--||
||o----------------------------------------------------o||
||------------------------------------------------------||


 4/4
  T       T       T       T       T       T        T    T
  T T T T T T T T T T T T T T T T T T T T T T T T  E S  S
|----------------------------------------------------------|
|----------------------------------------------------------|
|-9-7p5p4-9-7p5p4-9-7p5p4-9-7p5p4-9-7p5p4-9-7p5p4-10---10--|
|----------------------------------------------------------|
|----------------------------------------------------------|


   7/8
     T           T           T           T           T           T           T
     T  T  T  T  T  T  T  T  T  T  T  T  T  T  T  T  T  T  T  T  T  T  T  T  E
||------------------------------------------------------------------------------||
||o-16-14p12p11-16-14p12p11-16-14p12p11-16-14p12p11-16-14p12p11-16-14p12p11-17-o||
||------------------------------------------------------------------------------||
||o----------------------------------------------------------------------------o||
||------------------------------------------------------------------------------||


 4/4
   T           T           T           T           T           T           T    T
   T  T  T  T  T  T  T  T  T  T  T  T  T  T  T  T  T  T  T  T  T  T  T  T  E S  S
|----------------------------------------------------------------------------------|
|-16-14p12p11-16-14p12p11-16-14p12p11-16-14p12p11-16-14p12p11-16-14p12p11-17---17--|
|----------------------------------------------------------------------------------|
|----------------------------------------------------------------------------------|
|----------------------------------------------------------------------------------|


   7/8
     T         T         T         T         T         T         T
     T  T T T  T  T T T  T  T T T  T  T T T  T  T T T  T  T T T  E
||------------------------------------------------------------------||
||o----------------------------------------------------------------o||
||--12-10p9p7-12-10p9p7-12-10p9p7-12-10p9p7-12-10p9p7-12-10p9p7-13--||
||o----------------------------------------------------------------o||
||------------------------------------------------------------------||


 4/4
   T         T         T         T         T         T         T
   T  T T T  T  T T T  T  T T T  T  T T T  T  T T T  T  T T T  E S  S
|------------------------------------------------------------------------|
|------------------------------------------------------------------------|
|-12-10p9p7-12-10p9p7-12-10p9p7-12-10p9p7-12-10p9p7-12-10p9p7-13---10----|
|------------------------------------------------------------------------|
|------------------------------------------------------------------------|


   7/8
    T       T       T       T       T       T        T
    T T T T T T T T T T T T T T T T T T T T T T T T  E
||------------------------------------------------------||
||o----------------------------------------------------o||
||--9-7p5p4-9-7p5p4-9-7p5p4-9-7p5p4-9-7p5p4-9-7p5p4-10--||
||o----------------------------------------------------o||
||------------------------------------------------------||


 4/4
  T       T       T       T       T       T        T    T
  T T T T T T T T T T T T T T T T T T T T T T T T  E S  S
|----------------------------------------------------------|
|----------------------------------------------------------|
|-9-7p5p4-9-7p5p4-9-7p5p4-9-7p5p4-9-7p5p4-9-7p5p4-10---10--|
|----------------------------------------------------------|
|----------------------------------------------------------|


    Q=230
   17/8
    E E E E E E E Q  E E E E E E Q   4x E E E E E E E Q  E E E E E E Q
||-----------------------------------||---------------------------------|
||o---------------------------------o||---------------------------------|
||--5-5-5-5-5-5-5-6--5-5-5-5-5-5-6---||-7-7-7-7-7-7-7-8--7-7-7-7-7-7-8--|
||o---------------------------------o||---------------------------------|
||-----------------------------------||---------------------------------|


                                       Interlude
                                       8/4
    E E E E E E E Q  E E E E E E Q   3x E E E E E E E Q  E E E E E Q
||-----------------------------------||--------------------------------|
||o-------------9--------------9----o||--------------------------------|
||--7-7-7-7-7-7---8--7-7-7-7-7---8---||---------------8------------8---|
||o---------------------------------o||-0-0-0-0-0-0-6----0-0-0-0-6-----|
||-----------------------------------||--------------------------------|


 17/8                              5/4
                                    |--3--| |--3--|
  E E E E E E E Q  E E E E E Q  E   Q E E Q Q E E Q E E
|---------------------------------|---------------------|
|---------------------------------|---------------------|
|---------------8------------8--8-|-------8-------8-----|
|-0-0-0-0-0-0-6----0-0-0-0-6------|-6-6-----6-6-----6-0-|
|---------------------------------|---------------------|


 8/4
  |-3-| |-3-| |-3-| |-3-|   |--3--| |--3--| |--3--| |--3--|
  Q Q Q Q Q Q Q Q Q Q Q Q   Q Q E E Q Q E E Q Q E E Q Q E E
|-------------------------|---------------------------------|
|-------------------------|---------------------------------|
|-------------------------|---------------------------------|
|-1-1---1-1---1-1---1-1-1-|-2-2---2-2-2---2-2-2---2-2-2---2-|
|-------------------------|---------------------------------|


  |-3-| |-3-| |--3--|
  Q Q Q Q Q Q Q Q E E E E Q    E E E E E E E E E E E E E E E E
|----------------------------|---------------------------------|
|----------------------------|---------------------------------|
|-----8-----8-----8---8---8--|-----9-7-9-9-7-9-----9-7-9-9-7-9-|
|-6-6---6-6---6-6---6---6----|-7-7-------------7-7-------------|
|----------------------------|---------------------------------|


  |--3--| |--3--| |--3--| |--3--|   |--3--| |--3--| |--3--| |--3--|
  Q Q E E Q Q E E Q Q E E Q Q E E   Q Q E E Q Q E E Q Q E E Q Q E E
|---------------------------------|---------------------------------|
|---------------------------------|---------------------------------|
|---------------------------------|---------------------------------|
|-1-1---1-1-1---1-1-1---1-1-1---1-|-2-2---2-2-2---2-2-2---2-2-2---2-|
|---------------------------------|---------------------------------|


  |-3-| |-3-| |--3--|
  Q Q Q Q Q Q Q Q E E E E Q    E E E E E E E E E E Q  E E E E
|----------------------------|--------------------------------|
|----------------------------|-----------------9-9----7-7-----|
|-----8-----8-----8---8---8--|-----9-7-9-7--------------------|
|-6-6---6-6---6-6---6---6----|-7-7---------9-7--------------0-|
|----------------------------|--------------------------------|


  |--3--| |--3--| |--3--| |--3--|   |-3-|
  Q Q E E Q Q E E Q Q E E Q Q E E   Q Q Q  E  E  E  E  E  Q   E  Q   E  E
|---------------------------------|----------------------------------------|
|---------------------------------|-------12-12-10-------12--10--------12--|
|---------------------------------|----------------12-10--------12--10-----|
|-1-1---1-1-1---1-1-1---1-1-1---1-|-2-2------------------------------------|
|---------------------------------|----------------------------------------|


  |-3-| |-3-| |--3--|
  Q Q Q Q Q Q Q Q E E E E Q    E E E E E E E E E E E E E E E E
|----------------------------|---------------------------------|
|----------------------------|---------------------------------|
|-----8-----8-----8---8---8--|-----9-7-9-9-7-9-----9-7-9-9-7-9-|
|-6-6---6-6---6-6---6---6----|-7-7-------------7-7-------------|
|----------------------------|---------------------------------|


  |--3--| |--3--| |--3--| |--3--|
  Q Q E E Q Q E E Q Q E E Q Q E E   Q  E E E E E E E E E E E E E E
|---------------------------------|--------9---8---7---6---5---4---|
|---------------------------------|------7---6---5---4---3---2---1-|
|---------------------------------|--------------------------------|
|-1-1---1-1-1---1-1-1---1-1-1---1-|-2------------------------------|
|---------------------------------|--------------------------------|


  |-3-| |-3-| |--3--|
  Q Q Q Q Q Q Q Q E E E E Q
|----------------------------|
|----------------------------|
|-----8-----8-----8---8---8--|
|-6-6---6-6---6-6---6---6----|
|----------------------------|


                                   10/4
  E E E E E E E E E E E E E E E E   E Q.   W        W
|---------------------------------|----------------------|
|---------------------------------|----------------------|
|-----9-7-9-9-7-9-----9-7-9-9-7-9-|----------------------|
|-7-7-------------7-7-------------|-0--------------------|
|---------------------------------|----------------------|


   Pre-Verse
    Q=160
   4/4
    E S S S S E  S S S S Q
||--------------------------|
||o-------------------------|
||--------------------------|
||o-0-0-0-0-0-7\-0-0-0-0-8--|
||--------------------------|


                                             Verse
  +E   S S  S  S  S  S  S S  S  S  Q   4x     e Q  Q.   S S S S   3x
|----------12-11-10-11-10-9-10-11-10---||-||----------------------||
|-----10-9----------------------------o||-||o--------------------o||
|--------------------------------------||-||--4-------------------||
|-(8)---------------------------------o||-||o------5----5-5-5-5--o||
|--------------------------------------||-||----------------------||


 9/8                                    7/8           4/4
  S S S S S S S S S S S S S S S S S S    H..           e Q  Q.   S S S S   3x
|-------------------------------------||-----------||----------------------||
|-------------------------------------||-----------||o--------------------o||
|-9-8-7-9-8-7-6-7-8-7-6-5-6-7-6-5-4-3-||-----------||--4-------------------||
|-------------------------------------||-3---------||o------5----5-5-5-5--o||
|-------------------------------------||-----------||----------------------||


 9/8                                    7/8
  S S S S S S S S S S S S S S S S S S    H..
|-------------------------------------||-----------||
|-------------------------------------||-----------||
|-7-6-5-7-6-5-4-5-6-5-4-3-4-5-4-3-2-1-||-----------||
|-------------------------------------||-3---------||
|-------------------------------------||-----------||


 4/4
  S Q   S Q.   S S S S   E Q  Q.   S S S S   E Q  Q.   S S S S
|----------------------|-------------------|----------------------|
|----------------------|-------------------|-----------7-7-7-7----|
|----------------------|-4-----------------|-4--------------------|
|---9\----5----5-5-5-5-|------5----5-5-5-5-|------5---------------|
|----------------------|-------------------|----------------------|


 9/8
  S S S S S S S S S S S S S S S S S S
|-------------------------------------||
|-------------------------------------||
|-9-8-7-9-8-7-6-7-8-7-6-5-6-7-6-5-4-3-||
|-------------------------------------||
|-------------------------------------||


 7/8               4/4
  H    +E  S E.     E Q  Q.   S S S S
|---------------||----------------------||
|----------5----||o--------------------o||
|---------------||--4-------------------||
|-3----(3)------||o------5----5-5-5-5--o||
|---------------||----------------------||


 4/4             9/8                                    3/4
  E Q  H    +E    S S S S S S S S S S S S S S S S S S    H    Q
|---------------|-------------------------------------||-----------|
|---------------|-------------------------------------||-----------|
|-4-------------|-7-6-5-7-6-5-4-5-6-5-4-3-4-5-4-3-2-1-||-----------|
|------5----(5)-|-------------------------------------||-3---------|
|---------------|-------------------------------------||-----------|


 Interlude
  Q=140
 4/4
                                                                |-3-|
  E E E E E E E E   E E E E E E E E   E E E E E E E E   E E E E E E E E E
|-----------------|---------------8-|-----------------|-----------------8--|
|-----8-----8---8-|-----8---8-6-7---|-----8-----8---8-|-----8---8p7p6-7----|
|---8-----8-------|---8-------------|---8-----8-------|---8----------------|
|-6-----6-----6---|-6-----6---------|-6-----6-----6---|-6-----6------------|
|-----------------|-----------------|-----------------|--------------------|


 Chorus
  Q=100
 7/8                                         9/8
  E S S E S S E S S E   E S S E S S E S S E   E S S E S S E S S E E E
|---------------------|---------------------|-------------------------|
|---------------------|---------------------|-------------------------|
|---------------------|---------------------|-------------------------|
|-2-2-2-2-2-2-2-2-2-3-|-2-2-2-2-2-2-2-2-2-3-|-2-2-2-2-2-2-2-2-2-3---3-|
|---------------------|---------------------|-------------------------|


 7/8                     9/8                         7/8
  E S S E S S E S S S S   E S S E S S E S S E E S S   E S S E S S E E E
|-----------------------|---------------------------|-------------------|
|-------------------4-4-|---------------------------|-------------------|
|-----------------4-----|---------------------------|-------------------|
|-2-2-2-2-2-2-2-2-------|-2-2-2-2-2-2-2-2-2-3-2-2-2-|-2-2-2-2-2-2-3---3-|
|-----------------------|---------------------------|-------------------|


                                       |--3--|  |--3--|  |--3--|
  E S S E S S E S S E   E S S E  S  S  S  S  S  S  S  S  S  S  S
|---------------------|---------------18-16-14-------------------|
|---------------------|---------14-16----------17-16-14----------|
|---------------------|---------------------------------17-16-14-|
|-2-2-2-2-2-2-2-2-2-3-|-2-2-2-2----------------------------------|
|---------------------|------------------------------------------|


 9/8
   Q.    S  S  S  S  S  E E. E
|-------11-11-11-11-11----------|
|----------------------11-------|
|-------------------------------|
|-14-------------------------3--|
|-------------------------------|


                                            H
 7/8
  E S S E S S E S S E   E S S E S S E S S E
|---------------------|---------------4-4-6-|
|---------------------|---------------------|
|---------------------|---------------------|
|-2-2-2-2-2-2-2-2-2-3-|-2-2-2-2-2-2-2-------|
|---------------------|---------------------|


 .=H                Q=100
 12/8
  E S S E S S E S S  E E  E E  E E
|-----------------------------------*|
|-----------------------------------*|
|-------------------10---10---11----*|
|-2-2-2-2-2-2-2-2-2-----------------*|
|-----------------------------------*|



Duration Legend
---------------
W - whole; H - half; Q - quarter; E - 8th; S - 16th; T - 32nd; X - 64th; a - acciaccatura
+ - note tied to previous; . - note dotted; .. - note double dotted
Uncapitalized letters represent notes that are staccato (1/2 duration)
Irregular groupings are notated above the duration line
Duration letters will always appear directly above the note/fret number it represents the
duration for.  Duration letters with no fret number below them represent rests.  Multi-
bar rests are notated in the form Wxn, where n is the number of bars to rest for.  Low
melody durations appear below the staff

Tablature Legend
----------------
 h   - hammer-on
 p   - pull-off
 b   - bend
 pb  - pre-bend
 r   - bend release (if no number after the r, then release immediately)
 /\  - slide into or out of (from/to "nowhere")
 s   - legato slide
 S   - shift slide
 - natural harmonic
[n]  - artificial harmonic
n(n) - tapped harmonic
 ~   - vibrato
 tr  - trill
 T   - tap
 TP  - trem. picking
 PM  - palm muting
\n/  - tremolo bar dip; n = amount to dip
 \n  - tremolo bar down
 n/  - tremolo bar up
/n\  - tremolo bar inverted dip
 =   - hold bend; also acts as connecting device for hammers/pulls
 <> - volume swell (louder/softer)
 x   - on rhythm slash represents muted slash
 o   - on rhythm slash represents single note slash

Misc Legend
-----------
 |  - bar
||  - double bar
||o - repeat start
o|| - repeat end
*|  - double bar (ending)
 :  - bar (freetime)
 $  - Segno
 &  - Coda
Tempo markers -  = BPM(8/16=s8/s16), where s8 = swing 8ths, s16 = swing 16ths





Comments


Popular Watchtower tabs & chords
Danger Toy Bass Tabs
Instruments Of Random Murder Bass Tabs
The Eldritch Bass Tabs
A Lost Generation Tabs
Forever Cold Tabs
Social Fears Tabs


Song lyrics



↑ Back to top | Tablatures and chords are parodies/interpretations of the original songs. You may use it for private study, scholarship, research or language learning purposes only
© 2014 AZChords.com Contact us | Privacy policy | DMCA | Add/correct tabs | Request tabs | Top 50 tabs