» » »

Watchtower, A Lost Generation Tabs (ver.1)

Artists:  A B C D E F G H I J K L M N O P Q R S T U V W X Y Z # 

A Lost Generation Tabs (ver.1)

Watchtower Tabs
 Rating:
3.4/5 (5 votes)
A Lost Generation lessons Tabs too difficult? Try these video lessons and learn fast
1
                This is a song written by myself, George Cecil-Smith. It is
in the process of being completed but has yet to be made final. There are continuous
changes and additions being made to this song that are not shown below. This song is for my
purpose only and should not be copied. All visitors will be those whom I have shared my 
ideas with. Any other visitors, please enjoy what I have created, but please make no
attempt to copy it whatsoever.

Thanks, George

Intro - | (Am, Dm, Am, F) X2 | Em, Am, Em, Am | F        | G        |

Am                        Dm
Applications are many but places are few
Am                        F
Expectations are high, for me and for you
Am                        Dm
Whatever doesn't kill one, can only make one stronger
Am                                     F
But with tuition fees trebled, and the EMA no longer

Em                Am
We are a lost generation
Em                Am
We are a lost generation
F                               G
When the cost gets too much, we all turn a such

  C        G
A lost generation
  C        G
A lost generation
  E        D Dsus4 Dm
A lost generation

Am                    Dm
Places quickly fill, attempts all seem frozen
Am                            F
Even with top grades, no ones certainly chosen

Em            Am
In a lost generation
Em            Am
In a lost generation
F                               G
When the cost gets too much, we all turn to such

  C        G
A lost generation
  C        G
A lost generation
  E        D Dsus4 Dm
A lost generation

Guitar Solo-

-----------12--------13-13-15-17-15-----------12--------13-13-12----|
--13-13-15----15-15-----------------13-13-15----15--15----------15--|
--------------------------------------------------------------------|
--------------------------------------------------------------------|
--------------------------------------------------------------------|
--------------------------------------------------------------------|

-----------12--------13-13-15-17-15-----------12--------13-13-12----|
--13-13-15----15-15-----------------13-13-15----15--15----------15--|
--------------------------------------------------------------------|
--------------------------------------------------------------------|
--------------------------------------------------------------------|
--------------------------------------------------------------------|

-------------------------------------|
--13-------15-------13--13--12-------|
-------------------------------------|
-------------------------------------|
-------------------------------------|
-------------------------------------|

-------------------------------------|
--13-------15-------13--13--12-------|
-------------------------------------|
-------------------------------------|
-------------------------------------|
-------------------------------------|

-------------------------------------|
--10----9----5-----------------------|
-------------------------------------|
-------------------------------------|
-------------------------------------|
-------------------------------------|

Em            Am
In a lost generation
Em            Am
In a lost generation
F                               G
When the cost gets too much, we all turn to such

  C        G
A lost generation
  C        G
A lost generation
  E        D Dsus4 Dm   Am
A lost generation
            
Submit corrections

comments powered by Disqus
↑ Back to top | Watchtower Tabs for A Lost Generation. Lyrics for acoustic guitar and electric guitar. 1 Tablatures and chords are parodies/interpretations of the original songs. You may use it for private study, scholarship, research or language learning purposes only