>
 >
Silent Radar

Silent Radar Guitar Tabs

Watchmen - Silent Radar chords, tabs, tablatures, lyrics

Guitar lessons | Add/correct | Request | Top 50 tabs Artists:  A B C D E F G H I J K L M N O P Q R S T U V W X Y Z 0-9

Silent Radar Guitar Tabs – Watchmen

CD, Sheet music, Poster

Do you like Silent Radar? Share with your friends now
Tabs
-------------------------------------------------------------------------------
                             SILENT RADAR - The Watchmen
-------------------------------------------------------------------------------

Tuning: Standard (EADGBE)

Main Riff

e|-----------------------------0----------0----------0----------0----------|
B|-------------------------------------------------------------------------|
G|----------9-----------9--/17---17\16-16---16\14-14---14\12-12---12-------|
D|--10p9-------------------------------------------------------------------|
A|-------------12p10-------------------------------------------------------|
E|-------12----------12----------------------------------------------------|

Riff 2

e|--------------------------------------------------------------------------|
B|--------------------------------------------------------------------------|
G|-9-9-9-/-11-11-11-/-12-12-12-/-14-14-14-/-15-15-15-/-17-17-17-/-19-19-19--|
D|--------------------------------------------------------------------------|
A|--------------------------------------------------------------------------|
E|--------------------------------------------------------------------------|

-----------|
-----------|
-----------|
/-21-21-21-|
-----------|
-----------|
-----------|


Intro - Main riff x 4

Verse 1 - Main riff x 4


Chorus 1

"Got a Silent Radar..."

G  C (strum this chord once) x 3

then...

Main riff x 2

Verse 2 - Main riff x 4


Chorus 2

"Got a Silent Radar..."

G  C (strum this chord once) x 3

G  C (keep strumming C) x 3

then...

"I'm thinkin' over and over"

E  A x 3

E  D x 1


then...

Main Riff x 2

Bridge - Riff 2 x 2


Chorus 3


"Got a Silent Radar..."

G  C (keep strumming C) x 3

then...

"I'm thinkin' over and over"

E  A x 5

E  D x 1

End on E

Listen to the track for timing.

| /  slide up
| \  slide down
| h  hammer-on
| p  pull-off
| ~  vibrato
| +  harmonic
| x  Mute note
===============================================================================





Comments


Popular Watchmen tabs & chords
All Uncovered Bass Tabs
Stereo Bass Tabs
Doit Chords
Kill The Day 1 Chords
Stereo Chords
All Uncovered Tabs
Boneyard Tree Tabs
Middle East 1 Tabs
Kill The Day Ukulele
Lusitana Ukulele


Song lyrics



↑ Back to top | Tablatures and chords are parodies/interpretations of the original songs. You may use it for private study, scholarship, research or language learning purposes only
© 2014 AZChords.com Contact us | Privacy policy | DMCA | Add/correct tabs | Request tabs | Top 50 tabs