» » »

Watchmen, Boneyard Tree Tabs (ver.1)

Artists:  A B C D E F G H I J K L M N O P Q R S T U V W X Y Z # 

Boneyard Tree Tabs (ver.1)

Watchmen Tabs
Rating:
0/5 (0 votes)
Boneyard Tree lessons Tabs too difficult? Try these video lessons and learn fast
                -----------------------------------------------------------------------------
                             Boneyard Tree - The Watchmen
-----------------------------------------------------------------------------

Tuning: EADGBe

* There are no tabs for this, so I figured I'd do one.
* Listen to the song for strum and picking patterns.



Intro riff

e|--------------------------|
B|--------------------------|
G|--------2-----------0-----|
D|-----4-----4-----4-----4--|
A|--0-----------3-----------|
E|--------------------------|


Verses

e|--------0--------0--------|
B|--------X--------X--------|
G|--------4--------4--------|
D|--------7--------7--------|
A|--0--0-----5--5-----------|
E|--------------------------|


Chorus

e|--------------------------------------------------|
B|--------3-----------3-----------3-----------3-----|
G|-----3-----3-----3-----3-----3-----3-----3-----3--|
D|--5-----------4-----------3-----------2-----------|
A|--------------------------------------------------|
E|--------------------------------------------------|

e|--------------------------------------------------5--|
B|--------5-----------5-----------5-----------5-----5--|
G|-----5-----5-----5-----5-----5-----5-----5-----5--5--|
D|--7-----------6-----------5-----------4-----------5--|
A|--------------------------------------------------7--|
E|-----------------------------------------------------|


Other Part (just the chords, listen to get pattern)

e|--8--5--3--8---10--|
B|--5--5--3--8---10--|
G|--5--5--3--8---10--|
D|--7--7--5--10--12--|
A|-------------------|
E|-------------------|


************************************

| /   slide up
| \   slide down
| h   hammer-on
| p   pull-off
| ~   vibrato
| +   harmonic
| x   Mute note
| b   Bend
| pb  Pre-bend
| br  Bend release
| pbr Pre-bend release
| brb Bend release bend

************************************
            
Submit corrections

comments powered by Disqus
↑ Back to top | Watchmen Tabs for Boneyard Tree. Lyrics for acoustic guitar and electric guitar. Tablatures and chords are parodies/interpretations of the original songs. You may use it for private study, scholarship, research or language learning purposes only