» » »

W.A.S.P., The Idol Tabs (ver.2)

Artists:  A B C D E F G H I J K L M N O P Q R S T U V W X Y Z # 

The Idol Tabs (ver.2)

W.A.S.P. Tabs
 Rating:
4/5 (4 votes)
The Idol lessons Tabs too difficult? Try these video lessons and learn fast
                intro:
      Dm                             Bb             C
E-||-----1---0-1---3----1---5--3---|-1----0---------3----1----0---||
B-||----3-----------3----3---3--3--|-----------3------1----1------||
G-||o------------------------------|---3----3----------0----0----o||
D-||o-0----0-----0----0----0-------|----3----3-------------------o||
A-||-------------------------------|-1----1----1----3----3----3---||
E-||-------------------------------|------------------------------||


then:
     Dm                       Dm7sus2
E-||--1----------------------|-0----------------------|
B-||--3----------------------|-1----------------------|
G-||o-2----------------------|-2----------------------|
D-||o-0----------------------|-0----------------------|
A-||-------------------------|------------------------|
E-||-------------------------|------------------------|

   Bb/D                     C/D
E-|-1----------------------|-3------------3---1---0--||
B-|-3----------------------|-1-------------1---1-----||
G-|-3----------------------|-0--------------0---0---o||
D-|-0----------------------|-0----------------------o||
A-|------------------------|-------------------------||
E-|------------------------|-------------------------||

the next few lines are played over the above chords:
            
Submit corrections

comments powered by Disqus
↑ Back to top | W.A.S.P. Tabs for The Idol. Lyrics for acoustic guitar and electric guitar. Tablatures and chords are parodies/interpretations of the original songs. You may use it for private study, scholarship, research or language learning purposes only