» » »

Sleeping (In The Fire) Bass tabs (ver.2)

Artists:  A B C D E F G H I J K L M N O P Q R S T U V W X Y Z # 

Sleeping (In The Fire) Bass tabs (ver.2)

W.A.S.P.
Rating:
0/5 (0 votes)

Hard to play? Try these video lessons and learn fast.
                "

INTRO: ************** TOUCH, TOUCH IN THE...
G--------------------------------------------------|
D--------------------------------------------------|
A-7---5---3-----------7---5---3----------7---5---3-|
E-------------0--1/7--------------0-1/7------------|

G------7-9-----------------------------------------|
D--7-9---------------------------------------------|
A--------------------------------------------------|
E----------0000000000000000------------------------|

CHORUS: TASTE THE LOVE...
G--------------------------------------------------|
D--------------------------------------------------|
A-7-77-77-77-7-3-33-33-33-3-5-55-55-55-5-----------|
E--------------------------------------------------|

G--------------------------------------------------|
D--------------------------------------------------|
A--------------------------------------------------|
E-0000000000000000---------------------------------|


G--------------------------------------------------|
D--------------------------------------------------|
A-7-77-77-77-7-3-33-33-33-3-5-55-55-55-5-----------|
E--------------------------------------------------|


G--------------------------------------------------|
D--------------------------------------------------|
A--------------------------------------------------|
E-0000000000000000---------------------------------|


G--------------------------------------------------|
D--------------------------------------------------|
A-3333333333333333---------------------------------|
E------------------0000000000000000----------------|

G--------------------------------------------------|
D--------------------------------------------------|
A-3333333333333333---------------------------------|
E------------------0000000000000000----------------|

I GAZE AT THE FLAMES...
G--------------------------------------------------|
D--------------------------------------------------|
A-3333333333333333---------------------------------|
E------------------0000000000000000----------------|

G--------------------------------------------------|
D--------------------------------------------------|
A-3333333333333333---------------------------------|
E------------------0000000000000000----------------|


G--------------------------------------------------|
D----------------------5/9999999-------------------|
A-3333333333333333-0-2-----------------------------|
E--------------------------------------------------|

THE NEXT PART IS THE GUITAR SOLO (THE LIVE VERSION
OF THIS SONG IN THE ALBUM LIVE...IN THE RAW; CHRIS
HOLMES DO A KILLER SOLO). THEN IS THE SAME PART
3 TO 6 IN THE TAB.
"            
Hard to play? Try these video lessons and learn fast. | Correct




comments powered by Disqus
↑ Back to top | Tablatures and chords are parodies/interpretations of the original songs. You may use it for private study, scholarship, research or language learning purposes only