>
 >
School Daze

School Daze Guitar Tabs

W.A.S.P. - School Daze chords, tabs, tablatures, lyrics

Guitar lessons | Add/correct | Request | Top 50 tabs Artists:  A B C D E F G H I J K L M N O P Q R S T U V W X Y Z 0-9

School Daze Guitar Tabs – W.A.S.P.

CD, Sheet music, Poster

Do you like School Daze? Share with your friends now
Tabs
SCHOOL DAZE
                      As recorded by W.A.S.P.
                  (From the 1984 Album W.A.S.P.)


          C5                   E5                   D5
      x 3 5 5 x x          0 7 9 9 x x          x 5 7 7 x x
Gtr I (E A D G B E) - 'Gtr I'
Gtr II (E A D G B E) - 'Gtr II'
   Intro
    Moderate Rock Q=142
   4/4
    Gtr I
    PM--|                      PM--|
    |-3-|                      |-3-|
    E E E E +E   E +E    Q     E E E E +E   E +E    Q
||---------------------------|--------------------------|
||o--------------------------|--------------------------|
||--------9-(9)-7-(7)/-12--|-------9-(9)-7-(7)/-12--|
||--------9-(9)-7-(7)/-12--|-------9-(9)-7-(7)/-12--|
||o-------7-(7)-5-(5)/-10--|-------7-(7)-5-(5)/-10--|
||--0-0-0--------------------|-0-0-0--------------------|

  PM--|
  |-3-|                      |3|    |3|
  E E E E +E   E +E    Q     E Q Q  E Q Q    3x
|--------------------------|-3-3-3-----------||
|--------------------------|-3-3-3--3-3-3---o||
|-------9-(9)-7-(7)/-12--|-0-0-0--2-2-2----||
|-------9-(9)-7-(7)/-12--|-0-0-0--0-0-0----||
|-------7-(7)-5-(5)/-10--|----------------o||
|-0-0-0--------------------|-3-3-3-----------||

   Verse
    W          +W           W          H    H
||-----------|------------|-3--------|-----------|
||o----------|------------|-3--------|-3---------|
||--9--------|-(9)--------|-0--------|-2----2----|
||--9--------|-(9)--------|-0--------|-0----2----|
||o-7--------|-(7)--------|----------|------0----|
||--0--------|-(0)--------|-3--------|-----------|

                                     |3|    |3|
  W          +W           W          E Q Q  E Q Q
|----------|------------|-3--------|---------------|
|----------|------------|-3--------|-3-3-3---------|
|-9--------|-(9)--------|-0--------|-2-2-2--2-2-2--|
|-9--------|-(9)--------|-0--------|-0-0-0--2-2-2--|
|-7--------|-(7)--------|----------|--------0-0-0--|
|-0--------|-(0)--------|-3--------|---------------|

  W          +W           W          H    H
|----------|------------|-3--------|-----------|
|----------|------------|-3--------|-3---------|
|-9--------|-(9)--------|-0--------|-2----2----|
|-9--------|-(9)--------|-0--------|-0----2----|
|-7--------|-(7)--------|----------|------0----|
|-0--------|-(0)--------|-3--------|-----------|

                                     |-3-|
  W          +W           W          E E E Q  H
|----------|------------|-3--------|---------------||
|----------|------------|-3--------|-3-3-3-3-------||
|-9--------|-(9)--------|-0--------|-2-2-2-2-------||
|-9--------|-(9)--------|-0--------|-0-0-0-0-------||
|-7--------|-(7)--------|----------|---------------||
|-0--------|-(0)--------|-3--------|---------------||

 Chorus
  W          +H.      Q     W          H.      Q
|----------|--------------|-3--------|------------|
|----------|--------------|-3--------|------------|
|-9--------|-(9)------9--|-0--------|-2-------2--|
|-9--------|-(9)------9--|-0--------|-2-------2--|
|-7--------|-(7)------7--|----------|-0-------0--|
|-0--------|-(0)----------|-3--------|------------|

  W          +H.      Q     W          W
|----------|--------------|-3--------|------|
|----------|--------------|-3--------|------|
|-9--------|-(9)------9--|-0--------|-2----|
|-9--------|-(9)------9--|-0--------|-2----|
|-7--------|-(7)------7--|----------|-0----|
|-0--------|-(0)----------|-3--------|------|

                                   Bridge
  +W           +Q   Q  H            W          +W
|------------|---------------||-||-----------|--------|
|------------|--------------o||-||o----------|--------|
|-(2)--------|-(2)-----------||-||--5--------|-(5)----|
|-(2)--------|-(2)-----------||-||--5--------|-(5)----|
|-(0)--------|-(0)----------o||-||o-3--------|-(3)----|
|------------|---------------||-||-----------|--------|

  W          +W           W          W
|----------|------------|----------|------|
|----------|------------|----------|------|
|-9--------|-(9)--------|-5--------|-7----|
|-9--------|-(9)--------|-5--------|-7----|
|-7--------|-(7)--------|-3--------|-5----|
|-0--------|-(0)--------|----------|------|

  1.                        2.
  W          +W              W          +W
|----------|-------------||-----------|-------------------|
|----------|------------o||-----------|-------------------|
|-9--------|-(9)---------||--9--------|-(9)---------------|
|-9--------|-(9)---------||--9--------|-(9)---------------|
|-7--------|-(7)--------o||--7--------|-(7)---------x-x---|
|-0--------|-(0)---------||--0--------|-(0)---------------|
                                         H     Q  E E E
                                                  |-3-|

 Solo
  C5                                       E5
  Gtr I
   W                   +W                   W                           +W
   |                    |                   |                            |
   /                    /                   /                            /
  Gtr II
                           ~~~                                           ~~
                                |--3--|
   H.         +E   E    E  Q.   Q  Q  Q     H         +E.  +S    E  E    W
|--------------------|-------------------|----------------------------|-12----|
|--------------------|---------------15--|----------------------------|-------|
|-14b16------(14)p12-|-14----------------|-14b16=====(14)-(14)r-12S11-|-------|
|--------------------|----14------12-----|----------------------------|-------|
|--------------------|-------------------|----------------------------|-------|
|--------------------|-------------------|----------------------------|-------|

  C5                           D5                           E5
  W                            W                             H      H
  |                            |                             |      |
  /                            /                             /      /
  PM----------------------------------------------------|    ~~~~~~~~~
  |-3-| |-3-|  |--3--| |-3-|   |-3-|  |--3--| |-3-| |-3-|
  E E E E E E  E  E  E E E E   E E E  E  E  E E E E E E E    H      H
|----------------------------|----------------------------|--------------|
|----------------------------|----------------------------|--------------|
|----------------------------|----------------------------|-/9----/11----|
|----------------------7-7-7-|----------------7-7-7-9-9-9-|--------------|
|-7-7-7-9-9-9-10-10-10-------|-9-9-9-10-10-10-------------|--------------|
|----------------------------|----------------------------|--------------|

                                      Outro Chorus
  Gtr II
   |--3--|  |--3--|  |3-|  |--3--|
   E  E  E  E  E  E  Q  E  E  E  E     W           W
|-12-12-12-12-12-12-15-12-12-12-12-||-----------|-------------|
|----------------------------------||o----------|-------------|
|----------------------------------||-----------|-------------|
|----------------------------------||-----------|-------------|
|----------------------------------||o----------|-------------|
|----------------------------------||-----------|-------------|
|
| Gtr I
|  W                                   W          +H.      Q
|----------------------------------||-----------|-------------|
|----------------------------------||o----------|-------------|
|--9-------------------------------||--9--------|-(9)------9--|
|--9-------------------------------||--9--------|-(9)------9--|
|--7-------------------------------||o-7--------|-(7)------7--|
|--0-------------------------------||--0--------|-(0)------0--|

  W          H.      Q    W          +H.      Q
|-3--------|------------|----------|-------------|
|-3--------|------------|----------|-------------|
|-0--------|-2-------2--|-9--------|-(9)------9--|
|-0--------|-2-------2--|-9--------|-(9)------9--|
|----------|-0-------0--|-7--------|-(7)------7--|
|-3--------|------------|-0--------|-(0)------0--|

            1.,2.           3.
  W          H.      Q   3x W
|-3--------|-------------||------|
|-3--------|------------o||------|
|-0--------|-2-------2---||-2----|
|-0--------|-2-------2---||-2----|
|----------|-0-------0--o||-0----|
|-3--------|-------------||------|

               |3|    |3|      |-3-|
  +W           E Q Q  E Q Q    E E E Q  +Q    Q
|------------|---------------|-------------------*|
|------------|-3-3-3---------|-------------------*|
|-(2)--------|-2-2-2--2-2-2--|-9-9-9-9--(9)-----*|
|-(2)--------|-0-0-0--2-2-2--|-9-9-9-9--(9)-----*|
|-(0)--------|--------0-0-0--|-7-7-7-7--(7)-----*|
|------------|---------------|-0-0-0-0-----------*|





Comments


Popular W.A.S.P. tabs & chords
Ballcrusher Bass Tabs
Wild Child Bass Tabs
Breathe Chords
Rebel In The Fdg Chords
Damnation Angels Intro Tabs
Sleeping (In The Fire) Tabs
The Idol Tabs
The Idol 1 Tabs
Im Alive Ukulele
The Rock Rolls On Ukulele


Song lyrics



↑ Back to top | Tablatures and chords are parodies/interpretations of the original songs. You may use it for private study, scholarship, research or language learning purposes only
© 2014 AZChords.com Contact us | Privacy policy | DMCA | Add/correct tabs | Request tabs | Top 50 tabs