» » »

W.A.S.P., Mississippi Queen Bass tabs (ver.1)

Artists:  A B C D E F G H I J K L M N O P Q R S T U V W X Y Z # 

Mississippi Queen Bass tabs (ver.1)

W.A.S.P. Tabs
Rating:
0/5 (0 votes)
Mississippi Queen lessons Tabs too difficult? Try these video lessons and learn fast
                Album:The Last Command
Bassist:Blackie Lawless

This is an awesome cover of Mountain's Mississippi Queen.

Key:
x = times a number
* = let it ring

Intro/chorus
G:----1--|---------|
D:------3|---------|
A:1-3----|3x16-1x16|
E:-------|---------|

Verse
G:--------------|3x5--3-3-3-1-3|--------------|5x5--5-5-5-3-5|3x5--3-3-3-1-3|
D:3x5--3-3-3-1-3|--------------|3x5--3-3-3-1-3|--------------|--------------|
A:--------------|--------------|--------------|--------------|--------------|
E:--------------|--------------|--------------|--------------|--------------|

G:--------------|--|
D:3x5--3-3-3-1-3|3*|
A:--------------|--|
E:--------------|--|

Solo's are just the verse, so always play the verse after the chorus

End (look out...)
G:----------------------------------------------------------------------------------|
D:3*--3*--3*--3*--------3*--3*--------3*--3*--3*--3*--3*--3*--------3*--3*--------3*|
A:---------------1*--1*--------3*--1*------------------------1*--1*--------3*--1*---|
E:----------------------------------------------------------------------------------|

That's it. It's pretty simple. You can figure out the order and how many times to each 
            

comments powered by Disqus
↑ Back to top | W.A.S.P. Bass for Mississippi Queen. Lyrics for acoustic guitar and electric guitar. Tablatures and chords are parodies/interpretations of the original songs. You may use it for private study, scholarship, research or language learning purposes only