» » »

W.A.S.P., I Wanna Be Somebody Bass tabs (ver.1)

Artists:  A B C D E F G H I J K L M N O P Q R S T U V W X Y Z # 

I Wanna Be Somebody Bass tabs (ver.1)

W.A.S.P. Tabs
 Rating:
4/5 (4 votes)
I Wanna Be Somebody lessons Tabs too difficult? Try these video lessons and learn fast
1
                ----------------------------------------------------------------------------
			     I WANNA BE SOMEBODY - W.A.S.P
----------------------------------------------------------------------------


Tuning: Standard EADG

Intro/Verse
G|-----------------------------------------------------------------|
D|-2---------------------------2-------------------------------2---|
A|---0000000000000000000000000---00000000000000000000000000000-----|
E|-----------------------------------------------------------------|


G|------------------------------------------------------|
D|------------------------------------------------------|
A|-00000000000000000000000000----7~~--555-333-222-------|
E|------------------------------------------------333---| x2

Bridge

G|-(----------------------------------------)    |---------------------------|
D|-(----------------------------------------)    |-555\999999999999999--9--9-|
A|-(5-555-5-555-5-555-----------------------)    |---------------------------|
E|-(-------------------1--0--3~-333-3-333-3-) x2 |---------------------------|

G|-------------------------------------|
D|-------------------------------------|
A|--5-555-5-555-5-555------------------|
E|---------------------1--0--3~~--0----|

Chorus

G|------------------------------------------------------------------------|
D|----------------------------------------------------------7-5-----------|
A|-2--0000-2--0000-2~-2~-2~------------------5-555-5-555--------7-5-------|
E|----------------------------3-333-3-333--------------------------7-5----| x3

G|-------------------------------------------------------|
D|-------------------------------------------------------|
A|-2--0000-2--0000-2~-2~-2~------------------5~~~~~------|
E|----------------------------3-333-3-333----------------|

Verse
G|-----------------------------------------------------------------|
D|-2---------------------------2-------------------------------2---|
A|---0000000000000000000000000---00000000000000000000000000000-----|
E|-----------------------------------------------------------------|


G|------------------------------------------------------|
D|------------------------------------------------------|
A|-00000000000000000000000000----7~~--555-333-222-------|
E|------------------------------------------------333---| x2

Bridge

G|-(----------------------------------------)  |---------------------------|
D|-(----------------------------------------)  |-555\999999999999999--9--9-|
A|-(5-555-5-555-5-555-----------------------)  |---------------------------|
E|-(-------------------1--0--3~-333-3-333-3-)x2|---------------------------|

G|-------------------------------------|
D|-------------------------------------|
A|--5-555-5-555-5-555------------------|
E|---------------------1--0--3~~--0----|

Chorus

G|------------------------------------------------------------------------|
D|----------------------------------------------------------7-5-----------|
A|-2--0000-2--0000-2~-2~-2~------------------5-555-5-555--------7-5-------|
E|----------------------------3-333-3-333--------------------------7-5----| x3

G|-------------------------------------------------------|
D|-------------------------------------------------------|
A|-2--0000-2--0000-2~-2~-2~------------------5~~~~~------|
E|----------------------------3-333-3-333----------------|

interlude
(" I WANT!!! DIRTY CARS AND DIRTY MONEY!!....)
G|------------------------------------------------------------|
D|----------------------------------5\9999999999--12--12------|
A|---------5-555-5-555-5--------------------------------------|
E|-3~--3~-----------------1--0--3~----------------------------|

G|--------------------------------------|
D|--------------------------------------|
A|--5-555-5-555-5-----------------------|
E|-----------------3---1---0~~~~~--3----|

Solo

G|------------------------------------------------------------------------|
D|----------------------------------------------------------7-5-----------|
A|-2--0000-2--0000-2~-2~-2~------------------5-555-5-555--------7-5-------|
E|----------------------------3-333-3-333--------------------------7-5----| x3

G|------------------------------------------------------------------------|
D|------------------------------------------------------7-5---------------|
A|-2--0000-2--0000-2~-2~-2~------------------5~~~~~--------7-5------------|
E|----------------------------3-333-3-333---------------------7-5---------|

After solo interlude Bass
G|----------------------------------------------------------------------|
D|----------------------------------------------------------------------|
A|----------------------------------------------------------------------|
E|-0--0--0--0--0--0--0--0--0--0--0--0--0--0---55555555555----7777777777-| x3

verse
G|------------------------------------------------------------------------|
D|----------------------------------------------------------7-5-----------|
A|-2--0000-2--0000-2~-2~-2~------------------5-555-5-555--------7-5-------|
E|----------------------------3-333-3-333--------------------------7-5----| x3

G|------------------------------------------------------------------------|
D|------------------------------------------------------7-5---------------|
A|-2--0000-2--0000-2~-2~-2~------------------5~~~~~--------7-5------------|
E|----------------------------3-333-3-333---------------------7-5---------|

Outro
G|-----------------------------------------------------------------------|
D|----------------------------5\9999999999999999999999~------------------|
A|--------------------------------------------------------7--9-----------|
E|-7777777777777777777777777---------------------------------------------|

Dear God this has taken me ages to do, for such a simple main riff its a bugger to
hear on the cd. Anyways this is one of the best WASP songs of all time (top 3 being 
be
Hellion and Sleeping in the fire in my opinion) and i cant believe noone has tabbed the 
corrections you have.
I reckon it sounds pretty good and gives us bassists something solid to follow when we
thrash out a trully classic W.A.S.P anthem.

please comment and rate dudes, and enjoy it as much as i do!
            
Submit corrections

comments powered by Disqus
↑ Back to top | W.A.S.P. Bass for I Wanna Be Somebody. Lyrics for acoustic guitar and electric guitar. 1 Tablatures and chords are parodies/interpretations of the original songs. You may use it for private study, scholarship, research or language learning purposes only