» » »

Hallowed Ground Bass tabs (ver.2)

Artists:  A B C D E F G H I J K L M N O P Q R S T U V W X Y Z # 

Hallowed Ground Bass tabs (ver.2)

W.A.S.P.
Rating:
0/5 (0 votes)

Hard to play? Try these video lessons and learn fast.
                WASP "Hallowed Ground"

 This is the layout. Blackie rolls a couple of times,
 and hammers here and there, but you'll figure that out.
 It's easy. Stick to the rhythm, and add what feels natural.

 Verse & Chorus:
G|----------------------------------------------------|
D|----------------------------------------------------|
A|-6-6--6-66--6-6-6--6-66--62-2--2-22--24-4--4-44--4--|
E|----------------------------------------------------|

 Bridge:
G|--------------------------------------------|
D|--------------------------------------------|
A|-2-2--24-4--46-6--66-642-2-24-4--46-6--66-6-|
E|--------------------------------------------|

G|-----------------------------------------------------|
D|-----------------------------------------------------|
A|-42-2-24-4--46-6--66-642-2-24-4--4-------------------|
E|-----------------------------------4-4--44-4--44-4-44|

 This is how I like to play it:

 Verse & Chorus: 
 (Open with a slide to the 6th fret)
G|------------------------------------------------------------|
D|------------------------------------------------------------|
A|-6-6--6-66-6h8p6-6-6--6-66--642-2--2-22--0h2h4-4--4-44--2h4-|
E|------------------------------------------------------------|

 Bridge:
G|---------------------------------------------|
D|---------------------4-----------------------|
A|-2-2--24-4--46-6--66--6462-2-24-4--46-6--66--|
E|---------------------------------------------|

G|------------------------------------------------------|
D|-64---------------------------------------------------|
A|---642-2-24-4--46-6--66-642-2-24-4--4-----------------|
E|-----------------------------------4-4--44-4--44-4-44-|

 Veteran in The Last Army
            
Hard to play? Try these video lessons and learn fast. | Correct




comments powered by Disqus
↑ Back to top | Tablatures and chords are parodies/interpretations of the original songs. You may use it for private study, scholarship, research or language learning purposes only