» » »

Washya, You Are Hated Tabs (ver.1)

Artists:  A B C D E F G H I J K L M N O P Q R S T U V W X Y Z # 

You Are Hated Tabs (ver.1)

Washya Tabs
Rating:
0/5 (0 votes)
You Are Hated lessons Tabs too difficult? Try these video lessons and learn fast
                ------------------------------------------------------------------------------
------------------------------------------------------------------------------
Tuning: Standard (EBGDAE)
Intro
E|---------------------|
B|---------------------|
G|---------------------|
D|-555-----------------|
A|-333-555-7-333-3-555-|
E|-----333-5-111-1-333-|x2 

Verses
E|------------------------------------|
B|------------------------------------|
G|------------------------------------|
D|-----5---5-555---5---5-555----------|
A|-----3---3-333---3---3-333-3333-555-|
E|-000---0-------0---0-------1111-333-|
PM ***   *       *   *   

Chorus
E|------------------------------------------|
B|------------------------------------------|
G|------------------------------------------|
D|-5555----------7-77--------------3333-----|
A|-3333-3333-555-5-55-55-7-7\4-5-2-1111-3-2-|
E|------1111-333------33-5-5\2-3-0------1-0-|

Guitar Solo (Short And Sweet)
E|---------------------7-------------10-8-7------8-7/12~12h15p12h15p12h15b~-|
B|-------8-7---8-7---8---8-7---8-7-8--------8-10----------------------------|
G|-/9~-9-----9-----9---------9----------------------------------------------|
D|--------------------------------------------------------------------------|
A|--------------------------------------------------------------------------|
E|--------------------------------------------------------------------------|
            

comments powered by Disqus
↑ Back to top | Washya Tabs for You Are Hated. Lyrics for acoustic guitar and electric guitar. Tablatures and chords are parodies/interpretations of the original songs. You may use it for private study, scholarship, research or language learning purposes only