» » »

Yolandri Tabs (ver.1)

Artists:  A B C D E F G H I J K L M N O P Q R S T U V W X Y Z # 

Yolandri Tabs (ver.1)

Washya
Rating:
0/5 (0 votes)

Hard to play? Try these video lessons and learn fast.
                -----------------------------------------------------------------------------
-----------------------------------------------------------------------------
Tuning: Standard (EBGDAE)
Intro/Verses
E|-----------2---------------------------------2-3p2p0-|
B|---------2---2---------------0-------0-----2---------|
G|-------2-------2-----------4-------2-----4-----------|
D|-----4-----------4-------2-------4-------------------|
A|---4---------------4---0-----------------------------|
E|-2-------------------2---------0-------0-------------|
PM                               *       * 

Chorus
E|---------------------------------------------------------------------|
B|--------------------2*-----------------------------------------------|
G|-----------2h4~------------------2h4---------------------------------|
D|-------2h3------2h3----------2h3-----2h3---2h3p2-----------3--/5--/7-|
A|-2---------------------2-----------------3-------2-3-4-5---111/333/5-|
E|-0-000-----------------0-000---------------------0-1-2-333-----------|
PM   ***                   ***                     * * *       


Intro/Verses
E|-----------2---------------------------------2-3p2p0-|
B|---------2---2---------------0-------0-----2---------|
G|-------2-------2-----------4-------2-----4-----------|
D|-----4-----------4-------2-------4-------------------|
A|---4---------------4---0-----------------------------|
E|-2-------------------2---------0-------0-------------|
PM                               *       * 

Chorus
E|---------------------------------------------------------------------|
B|--------------------2*-----------------------------------------------|
G|-----------2h4~------------------2h4---------------------------------|
D|-------2h3------2h3----------2h3-----2h3---2h3p2-----------3--/5--/7-|
A|-2---------------------2-----------------3-------2-3-4-5---111/333/5-|
E|-0-000-----------------0-000---------------------0-1-2-333-----------|
PM   ***                   ***                     * * *       

Intro/Verses
E|-----------2---------------------------------2-3p2p0-|
B|---------2---2---------------0-------0-----2---------|
G|-------2-------2-----------4-------2-----4-----------|
D|-----4-----------4-------2-------4-------------------|
A|---4---------------4---0-----------------------------|
E|-2-------------------2---------0-------0-------------|
PM                               *       * 

Chorus
E|---------------------------------------------------------------------|
B|--------------------2*-----------------------------------------------|
G|-----------2h4~------------------2h4---------------------------------|
D|-------2h3------2h3----------2h3-----2h3---2h3p2-----------3--/5--/7-|
A|-2---------------------2-----------------3-------2-3-4-5---111/333/5-|
E|-0-000-----------------0-000---------------------0-1-2-333-----------|
PM   ***                   ***                     * * *       


Guitar Solo
E|---------------------------/10----10----7---9----------------------12----|
B|-2---2-4-5-4-2-----2---6-5-----------/9---9---12p11p9------9h10h11----11-|
G|---4-----------4-4---4---------10---------------------9h11---------------|
D|-------------------------------------------------------------------------|
A|-------------------------------------------------------------------------|
E|-------------------------------------------------------------------------|

E|-12-----12-------------------------7h8h10p8p7/9h12h10p9h10/13h15p13p12-|
B|----11b----11b-h12bp9~-/7h8h10p8p7-------------------------------------|
G|-----------------------------------------------------------------------|
D|-----------------------------------------------------------------------|
A|-----------------------------------------------------------------------|
E|-----------------------------------------------------------------------|

E|-12h13/15h18p16p15h16h18p16p15/17h20p18p17h18h20p18p17h20p18p17h20p18p17-|
B|-------------------------------------------------------------------------|
G|-------------------------------------------------------------------------|
D|-------------------------------------------------------------------------|
A|-------------------------------------------------------------------------|
E|-------------------------------------------------------------------------|

E|-17p14----14----15p12----12-----------------------------------------|
B|-------17----17-------15----15~-------------------------------------|
G|--------------------------------------------------------------------|
D|--------------------------------------------------------------------|
A|--------------------------------------------------12h13h15p12h13h15-|
E|--------------------------------12h13h15p12h13h15-------------------|
PM                                ***************** *****************

E|------------------------------------------------------------13----13~-|
B|-------------------------------------12h13h15p12h13h15------13----13~-|
G|-------------------12h13h15p12h13h15-------------------1515----15-----|
D|-12h13h15p12h13h15----------------------------------------------------|
A|----------------------------------------------------------------------|
E|----------------------------------------------------------------------|

E|-----13h16p13-----13h16p13-----13h16p13-----13h17p13h17p13h18p13h18-19~-|
B|-----13-----------13-----------13-----------13--------------------------|
G|-15b----------15b----------15b----------15b-----------------------------|
D|------------------------------------------------------------------------|
A|------------------------------------------------------------------------|
E|------------------------------------------------------------------------|

E|-15h17----15--------------------------------------------------|
B|-------18----17h18p17p15-------15-----------------------------|
G|-------------------------17h18----18p17p15-12h15p12-----------|
D|----------------------------------------------------14h15p12~-|
A|--------------------------------------------------------------|
E|--------------------------------------------------------------|

Chorus
E|---------------------------------------------------------------------|
B|--------------------2*-----------------------------------------------|
G|-----------2h4~------------------2h4---------------------------------|
D|-------2h3------2h3----------2h3-----2h3---2h3p2-----------3--/5--/7-|
A|-2---------------------2-----------------3-------2-3-4-5---111/333/5-|
E|-0-000-----------------0-000---------------------0-1-2-333-----------|
PM   ***                   ***                     * * *      

Intro/Verses
E|-----------2---------------------------------2-3p2p0-|
B|---------2---2---------------0-------0-----2---------|
G|-------2-------2-----------4-------2-----4-----------|
D|-----4-----------4-------2-------4-------------------|
A|---4---------------4---0-----------------------------|
E|-2-------------------2---------0-------0-------------|
PM                               *       *  
            
Hard to play? Try these video lessons and learn fast. | Correct




comments powered by Disqus
↑ Back to top | Tablatures and chords are parodies/interpretations of the original songs. You may use it for private study, scholarship, research or language learning purposes only