>
 >
Wild Cowboy

Wild Cowboy Guitar Tabs

Washya - Wild Cowboy chords, tabs, tablatures, lyrics

Guitar lessons | Add/correct | Request | Top 50 tabs Artists:  A B C D E F G H I J K L M N O P Q R S T U V W X Y Z 0-9

Wild Cowboy Guitar Tabs – Washya

CD, Sheet music, Poster

Do you like Wild Cowboy? Share with your friends now
Tabs
-----------------------------------------------------------------------------
-----------------------------------------------------------------------------
Tuning: Standard (EBGDAE)
Intro
E|---------------------------------------------|
B|---------------------------------------------|
G|---------------------------------------------|
D|---------------------------------------------|
A|---------------------------------------------|
E|-0-0-0-0-0-0-0-0-0-0-0-0-0-0-0-0-0-0-0-0-0-0-|
PM * * * * * * * * * * * * * * * * * * * * * * 

Riff 2
E|-----------------------------------------------|
B|-----------------------------------------------|
G|-----------------------------------------------|
D|-------------------------------------------13~-|
A|----12-15----12-15-12-10----12-15----12-15-----|
E|-15-------15-------------15-------15-----------|
PM ** ** ** ** ** ** ** ** ** ** ** ** ** ** 

Main Riff/Chorus
E|-------------------------------|
B|-------------------------------|
G|-------------------------------|
D|-----------------------------2-|
A|---1-3---1-3-2-0---1-3---1-3---|
E|-3-----3---------3-----3-------|
PM * * * * * * * * * * * * * * 

Verses
E|-------------------------------------------------------------------------|
B|-------------------------------------------------------------------------|
G|-------------------------------------------------------------------------|
D|-----------------------------2-------------------------1-------1---------|
A|-------------------------1h3-----------------------------3-2-1---3-2---2-|
E|-0-0-0-0-0-0-0-0-0-0-0-0-------0-0-0-0-0-0-0-0-0-0-0-0---------------1-0-|
PM * * * * * * * * * * * *       * * * * * * * * * * * * 

part 2
E|-----------------------------------------------------|
B|-----------------------------------------------------|
G|-----------------------------------------------------|
D|---------------------------------------------2-------|
A|-88888-55555-66-6-7----------------------------3p1-2-|
E|-66666-33333-44-4-5-0-0-0-0-0-0-0-0-0-0-0-0--------0-|
PM ***** ***** **     * * * * * * * * * * * *  

Main Riff/Chorus
E|-------------------------------|
B|-------------------------------|
G|-------------------------------|
D|-----------------------------2-|
A|---1-3---1-3-2-0---1-3---1-3---|
E|-3-----3---------3-----3-------|
PM * * * * * * * * * * * * * * 

Verses
E|-------------------------------------------------------------------------|
B|-------------------------------------------------------------------------|
G|-------------------------------------------------------------------------|
D|-----------------------------2-------------------------1-------1---------|
A|-------------------------1h3-----------------------------3-2-1---3-2---2-|
E|-0-0-0-0-0-0-0-0-0-0-0-0-------0-0-0-0-0-0-0-0-0-0-0-0---------------1-0-|
PM * * * * * * * * * * * *       * * * * * * * * * * * * 

part 2
E|-----------------------------------------------------|
B|-----------------------------------------------------|
G|-----------------------------------------------------|
D|---------------------------------------------2-------|
A|-88888-55555-66-6-7----------------------------3p1-2-|
E|-66666-33333-44-4-5-0-0-0-0-0-0-0-0-0-0-0-0--------0-|
PM ***** ***** **     * * * * * * * * * * * *  

Guitar Solo
E|---------------------------------------15~---------------------------17~-|
B|--------------------/12h15p14h15p14p12----------14h17p16p14h17p16p14-----|
G|---------------/12~------------------------/14~--------------------------|
D|-------------------------------------------------------------------------|
A|-22-2-8\7\5--------------------------------------------------------------|
E|-00-0-6\5\3-00-----------------------------------------------------------|
PM ** *       ** 

E|----------------------------------------------------------------------|
B|----------------------------------------------------------------------|
G|-------------------------------------------------------------13h14h16-|
D|-------------------------------------------11h12h14p11h12h14----------|
A|---------------------------9h10h12p9h10h12----------------------------|
E|-5h6h8p5h6h8-7h8h10p7h8h10--------------------------------------------|
PM *********** ************* ***************

E|----------------------------17h18h20p17h18h20~-17h20p18h17h20p18p17-|
B|----------15h16h18p15h16h18-----------------------------------------|
G|-13h14h16-----------------------------------------------------------|
D|--------------------------------------------------------------------|
A|--------------------------------------------------------------------|
E|--------------------------------------------------------------------|

E|-----------------------------------------------------------------------|
B|-17h20p18p17h20p18p17--------------------------------------------------|
G|----------------------20p18p17h20p18p17--------------------------------|
D|----------------------------------------20p18p17h20p18p17--------------|
A|----------------------------------------------------------20p18p17-17~-|
E|-----------------------------------------------------------------------|

E|-----------------------------18p17----18p17----18~-18h19-----|
B|-/18p17----18p17----18p17----------16-------16-----------20b-|
G|--------16-------16-------16---------------------------------|
D|-------------------------------------------------------------|
A|-------------------------------------------------------------|
E|-------------------------------------------------------------|

E|-18h19-----18h19-----18h19p18\15h17p15\14h15p14\12h13p12\10---------|
B|-------20b-------20b----------------------------------------8-7---7-|
G|----------------------------------------------------------------9---|
D|--------------------------------------------------------------------|
A|--------------------------------------------------------------------|
E|--------------------------------------------------------------------|

E|----------------------------------------------------------|
B|----------------------------------------------------------|
G|-------10-8-7---8-7---------------------------------------|
D|-9-8-7--------9-----10-8-7---7-------7h8p6----------------|
A|---------------------------5---9-8-6-------8-7-5---7------|
E|-------------------------------------------------8---5-3~-|

E|-------------------------------------------------------|
B|-------------------------------------------------------|
G|-------------------------------------------------------|
D|-------------------4----------------------4\5\4--------|
A|-3p2p0-3p2p0-3p2p0-2----3p2p0-3p2p0-3p2p0-2\3/2--------|
E|---------------------00--------------------------------|
PM ***** ***** *****   ** ***** ***** *****   

E|-17-17-17p16p14h15p14\12h14p12\10h13p12h13p12\10p8p7----|
B|-----------------------------------------------------9~-|
G|--------------------------------------------------------|
D|--------------------------------------------------------|
A|--------------------------------------------------------|
E|--------------------------------------------------------|

E|-------------------------------------------------------|
B|-------------------------------------------------------|
G|-------------------------------------------------------|
D|-------------------4----------------------4\5\4--------|
A|-3p2p0-3p2p0-3p2p0-2----3p2p0-3p2p0-3p2p0-2\3/2--------|
E|---------------------00--------------------------------|
PM ***** ***** *****   ** ***** ***** *****   

E|-19-19-19p18p16h17p16\14h16p15p13\11h14p13p11h12p11\9p7p6----|
B|----------------------------------------------------------8~-|
G|-------------------------------------------------------------|
D|-------------------------------------------------------------|
A|-------------------------------------------------------------|
E|-------------------------------------------------------------|

End of solo

Riff 2
E|-----------------------------------------------|
B|-----------------------------------------------|
G|-----------------------------------------------|
D|-------------------------------------------13~-|
A|----12-15----12-15-12-10----12-15----12-15-----|
E|-15-------15-------------15-------15-----------|
PM ** ** ** ** ** ** ** ** ** ** ** ** ** ** 

Main Riff/Chorus
E|-------------------------------|
B|-------------------------------|
G|-------------------------------|
D|-----------------------------2-|
A|---1-3---1-3-2-0---1-3---1-3---|
E|-3-----3---------3-----3-------|
PM * * * * * * * * * * * * * * 

Verses
E|-------------------------------------------------------------------------|
B|-------------------------------------------------------------------------|
G|-------------------------------------------------------------------------|
D|-----------------------------2-------------------------1-------1---------|
A|-------------------------1h3-----------------------------3-2-1---3-2---2-|
E|-0-0-0-0-0-0-0-0-0-0-0-0-------0-0-0-0-0-0-0-0-0-0-0-0---------------1-0-|
PM * * * * * * * * * * * *       * * * * * * * * * * * * 





Comments


Popular Washya tabs & chords
Defend Your Position Tabs
Family Love Tabs
Fever Pitch Tabs
Fiery Hand From Hell Tabs
Highways Of Hell Tabs
Hop Across Burning Ashes Tabs
Insanity Tabs
Joyful Tabs
Secret Stash Tabs
The Beginning Of The War Tabs


Song lyrics



↑ Back to top | Tablatures and chords are parodies/interpretations of the original songs. You may use it for private study, scholarship, research or language learning purposes only
© 2014 AZChords.com Contact us | Privacy policy | DMCA | Add/correct tabs | Request tabs | Top 50 tabs