» » »

Washya, Whats The Deal Tabs (ver.1)

Artists:  A B C D E F G H I J K L M N O P Q R S T U V W X Y Z # 

Whats The Deal Tabs (ver.1)

Washya Tabs
 Rating:
4/5 (4 votes)
Whats The Deal lessons Tabs too difficult? Try these video lessons and learn fast
1
                -------------------------------------------------------------------------------
                             What's The Deal - Washya
-------------------------------------------------------------------------------

Tuning: Drop C (DAFCGC) 
Intro (Note: This is a Very Heavy Song)

D|------------------------------------------------------|
A|---/9\7--------------9~-7-----------------------------|
F|----x-x-------------/9~-7/10--------------------------|
C|-2-/7\5-6-6-5-3-0-0----------9-8----8-6-5-6-5-2-3-2-0-|
G|-2------6-6-5-3-0-0--------------10-8-6-5-6-5-2-3-2-0-|
C|-2------6-6-5-3-0-0-----------------8-6-5-6-5-2-3-2-0-|
pm                                    . . . . . . . . . 

Verses
D|------------------------------------------------------------------------|
A|------------------------------------------------------------------------|
F|---------------------------------------------------------------3--------|
C|-------------------------------------3-----------------------5---5------|
G|-------------------------------2-3-5---5-3-2-3-2---------2-3-------3-2--|
C|-000-0-0-0-000-0-0-0-000-0-0-0-------------------0-0-0-0----------------|
pm ... . . . ... . . . ... . . .                   . . . . 





Chorus
D|----------------------------------------------------|
A|----------------------------------------------------|
F|-------------7~------------------------7~-----------|
C|---7h9p7-----7~--7h8p7-5~----7h9p7-----7~-7h8p7/10~-|
G|---------9-------------------------9----------------|
C|-0---------0---------------0---------0--------------|


Guitar Solo (Play Extremely fast)
D|-12b-12~-12h14p13p12h14p13p12--12p11h12/14p13h14/17h19p17/20-20-22~-|
A|-12b----------------------------------------------------------------|
F|--------------------------------------------------------------------|
C|--------------------------------------------------------------------|
G|--------------------------------------------------------------------|
C|--------------------------------------------------------------------|


D|-22b-22b-22b~----------16----16-----------------------------13-14-16-19-|
A|--------------13-16-------------13--------------------17p16-------------|
F|--------------------13----13--------16-------15h17p15-------------------|
C|---------------------------------------13-12----------------------------|
G|------------------------------------------------------------------------|
C|------------------------------------------------------------------------|

D|-20-22-22-22~-|
A|--------------|
F|--------------|
C|--------------|
G|--------------|
C|--------------|
            
Submit corrections

comments powered by Disqus
↑ Back to top | Washya Tabs for Whats The Deal. Lyrics for acoustic guitar and electric guitar. 1 Tablatures and chords are parodies/interpretations of the original songs. You may use it for private study, scholarship, research or language learning purposes only