» » »

Washya, Walk In My Shoes Tabs (ver.1)

Artists:  A B C D E F G H I J K L M N O P Q R S T U V W X Y Z # 

Walk In My Shoes Tabs (ver.1)

Washya Tabs
 Rating:
4/5 (4 votes)
Walk In My Shoes lessons Tabs too difficult? Try these video lessons and learn fast
1
                ------------------------------------------------------------------------------
------------------------------------------------------------------------------
Tuning: Drop D (DADGBE)
Intro
E|------------------------------------------------------|
B|------------------------------------------------------|
G|------------------------------------------------------|
D|------------------------------------------------------|
A|-4-3-1-0-4-3-1-0-4-3-1-0-1-00-3-00-4-00-3-1-0-0-4-3-1-|
D|-4-3-1-0-4-3-1-0-4-3-1-0-1-00-3-00-4-00-3-1-0-0-4-3-1-|
PM       *       *       *   **   **   **     * *  

Verses
E|-------------------------------------------------|
B|-------------------------------------------------|
G|-------------------------------------------------|
D|-------------------------------------------------|
A|-0-4-3-6-0-4-3-6-0-4-3-6-0-4-3-6-0-44444443-66-0-|
D|-0-4-3-6-0-4-3-6-0-4-3-6-0-4-3-6-0-44444443-66-0-|
PM *       *       *       *       * 

Chorus
E|---------------------------------------|
B|---------------------------------------|
G|---------------------------------------|
D|---------------------------------------|
A|-0-4-3-1-0-1-3-4-3-4/6-0-4-3-1-0-5-4-3-|
D|-0-4-3-1-0-1-3-4-3-4/6-0-4-3-1-0-5-4-3-|

Guitar Solo
E|---------14----------------14----------------14-16-16p14h16-18~-|
B|-14b--------17p16p14h16h17----17p16p14h16h17--------------------|
G|-15b-15~--------------------------------------------------------|
D|----------------------------------------------------------------|
A|----------------------------------------------------------------|
D|----------------------------------------------------------------|

E|----------------------12h14p12h14p12h15p12h15-17~----18-------------------|
B|-16h18-15h16p15/13--------------------------------19----19p17----17-------|
G|-------------------15~----------------------------------------19----19p17-|
D|--------------------------------------------------------------------------|
A|--------------------------------------------------------------------------|
D|--------------------------------------------------------------------------|

E|-------------------------18~-----13h15-----14h16-----16h18p16p18p16-20~-|
B|-------------------17--------/12-------/13-------/15--------------------|
G|-19p17p16----17p16----16------------------------------------------------|
D|----------19------------------------------------------------------------|
A|------------------------------------------------------------------------|
D|------------------------------------------------------------------------|
            
Submit corrections

comments powered by Disqus
↑ Back to top | Washya Tabs for Walk In My Shoes. Lyrics for acoustic guitar and electric guitar. 1 Tablatures and chords are parodies/interpretations of the original songs. You may use it for private study, scholarship, research or language learning purposes only