» » »

Washya, Trolling Unprotected Tabs (ver.1)

Artists:  A B C D E F G H I J K L M N O P Q R S T U V W X Y Z # 

Trolling Unprotected Tabs (ver.1)

Washya Tabs
 Rating:
4/5 (4 votes)
Trolling Unprotected lessons Tabs too difficult? Try these video lessons and learn fast
                -----------------------------------------------------------------------------
-----------------------------------------------------------------------------
Tuning: Standard (ebgDAE)
Intro
e|----------------------------|
b|----------------------------|
g|----------------------------|
D|-----------------555-5------|
A|-44-44-4/77-77-7-333-3-33/5-|
E|-22-22-2/55-55-5-------11/3-|

Main Riff/Chorus
e|-------------------------------------------|
b|-------------------------------------------|
g|-------------------------------------------|
D|-5/7-----3/5---------8\7-5/7---------999\8-|
A|-3/5-5/7-1/3-8\7-3/5-6\5-3/5-5\3-7/9-777\6-|
E|-----3/5-----6\5-1/3---------3\1-5/7-------|

Verses
e|-------------------------------------------------------------|
b|-------------------------------------------------------------|
g|-------------------------------------------------------------|
D|-------------------------------------------------------------|
A|-----1---1-3-1---1-------333/5-----3---3-5-3---3-------555/7-|
E|-1-3---3-------3---3-2-1-111/3-3-5---5-------5---5-4-3-333/5-|
PM * * * * * * * * * * * *       * * * * * * * * * * * *   
            
Submit corrections

comments powered by Disqus
↑ Back to top | Washya Tabs for Trolling Unprotected. Lyrics for acoustic guitar and electric guitar. Tablatures and chords are parodies/interpretations of the original songs. You may use it for private study, scholarship, research or language learning purposes only