» » »

Trepidation Tabs (ver.1)

Artists:  A B C D E F G H I J K L M N O P Q R S T U V W X Y Z # 

Trepidation Tabs (ver.1)

Washya
Rating:
0/5 (0 votes)

Tabs too difficult? Try these video lessons and learn fast.
                -----------------------------------------------------------------------------
-----------------------------------------------------------------------------
Tuning: Drop C (DAFCGC)
Intro
D|-----------------------------------------|
A|-----------------------------------------|
F|-----------------------------------------|
C|---------3p2-------5---6-5-3-------------|
G|---3-5-------3---3-----------5-4-2-5~/8~-|
C|-0-----0-------0-----0-------------5~/8~-|
PM *     *       *     * 

Verses
D|-------------------------------------------------------|
A|-------------------------------------------------------|
F|-------------------------------------------------------|
C|-----3-2-----3-----------5-4-----5-----------2---------|
G|-3-5-----3-5---00-00-5-7-----5-7---11-11-2-3---3-2-1-0-|
C|---------------00-00---------------11-11-------------0-|
PM               ** **               ** **             * 

Chorus
D|-------------------------------------------------|
A|-------------------------------------------------|
F|-------------------------------------------------|
C|-------------------------------------------------|
G|-1111/5555/888888\333333-0-1-3-1-0-1-33333/55555-|
C|-1111/5555/888888\333333-0-1-3-1-0-1-33333/55555-|
PM                         * * * * * *  
            
Tabs too difficult? Try these video lessons and learn fast.


comments powered by Disqus
↑ Back to top | Tablatures and chords are parodies/interpretations of the original songs. You may use it for private study, scholarship, research or language learning purposes only