» » »

Washya, Traced Out Tabs (ver.1)

Artists:  A B C D E F G H I J K L M N O P Q R S T U V W X Y Z # 

Traced Out Tabs (ver.1)

Washya Tabs
 Rating:
4/5 (4 votes)
Traced Out lessons Tabs too difficult? Try these video lessons and learn fast
1
                ------------------------------------------------------------------------------
------------------------------------------------------------------------------
Tuning: Standard (EBGDAE)
Intro
E|---------------------------------------------------|
B|---------------------------------------------------|
G|---------------------------------------------------|
D|---------------------------------11---------1---11-|
A|---------------------------------33---------3---33-|
E|-0000-00-0000-00-0000-00-0000-00-33-0000-00-3-0-33-|
PM **** ** **** ** **** ** **** **    **** **   * 

Part 2
E|---------------------------------------------------------|
B|---------------------------------------------------------|
G|---------------------------------------------------------|
D|---------------------------------------------------------|
A|---------------------------------------------------------|
E|-/101010101010\888\555555555/77777777\444444444\11111111-|
PM  ************ *** ********* ******** ********* ********

verses
E|-------------------------------------------------------|
B|-------------------------------------------------------|
G|-------------------------------------------------------|
D|-------0----------2-------3-----------2bp0-------------|
A|---2/5-------2bp0-0---2/5-------0-2/5------3p2p0-------|
E|-0-------2/5--------0-------2/5------------------5\2-0-|

Chorus
E|-------------------------------|
B|-------------------------------|
G|-------------------------------|
D|----5-----------3--------------|
A|----3---7---8---1----4---5---7-|
E|-00---0-5-0-6-0---00-2-0-3-0-5-|
PM **   *   *   *   **   *   * 

Interlude
E|------------------------------------|
B|------------------------------------|
G|------------------------------------|
D|---------0-------------0------------|
A|-----0h1---1-332-----1----1p0-------|
E|-0h3---------110-3p0----------3-2-1-|

Outro
E|----------------------|
B|----------------------|
G|----------------------|
D|----------------------|
A|----5---7---3---4---5-|
E|-00-3-0-5-0-1-0-2-0-3-|
            
Submit corrections

comments powered by Disqus
↑ Back to top | Washya Tabs for Traced Out. Lyrics for acoustic guitar and electric guitar. 1 Tablatures and chords are parodies/interpretations of the original songs. You may use it for private study, scholarship, research or language learning purposes only