» » »

Washya, Time Tabs (ver.1)

Artists:  A B C D E F G H I J K L M N O P Q R S T U V W X Y Z # 

Time Tabs (ver.1)

Washya Tabs
 Rating:
4/5 (4 votes)
Time lessons Tabs too difficult? Try these video lessons and learn fast
1
                -----------------------------------------------------------------------------
-----------------------------------------------------------------------------
Tuning: Standard (EBGDAE)
Intro
E|-2-----2---------2--------------------------0---------------------------|
B|-3-------3---------3-------1----------1-----0---------------------------|
G|-2---------2---------2---------2----------2-0---------------------------|
D|-0---------------------------2----------2---2---2-----2-----2---------0-|
A|-0---0---------0---------0----------0-------2-----2-----2-----2-----2---|
E|-0-0---------0---------0----------0---------0-0-----0-----0-----0-3-----|


E|-----------------3-----3-----------------|
B|---------------3---------3---------------|
G|-------------0-----0---------------------|
D|-----2-----0---------0---------0-----2-2-|
A|---2-----2-------------------2-----2---2-|
E|-0-----3-------------------3-----0-----0-|

Verses
E|---------5-3/5----------------------5-3-------|
B|---------5-3/5----------0-1/2-------5-3-------|
G|-0-3h5p3--------3h5p3-5-0-2/3-3h5p3-----5-3---|
D|-0-3h5p3--------------5---------------------5-|
A|----------------------------------------------|
E|----------------------------------------------|

Chorus
E|----------------------------------|
B|----------------------------------|
G|----------------------------------|
D|---------11-10-9--------5-4-3-----|
A|----5----9--8--7-9-7----3-2-1-3-2-|
E|-00-3-00---------7-5-00-------1-0-|
PM **   **             **  
            
Submit corrections

comments powered by Disqus
↑ Back to top | Washya Tabs for Time. Lyrics for acoustic guitar and electric guitar. 1 Tablatures and chords are parodies/interpretations of the original songs. You may use it for private study, scholarship, research or language learning purposes only