>
 >
The Southern Curse

The Southern Curse Guitar Tabs

Washya - The Southern Curse chords, tabs, tablatures, lyrics

Guitar lessons | Add/correct | Request | Top 50 tabs Artists:  A B C D E F G H I J K L M N O P Q R S T U V W X Y Z 0-9

The Southern Curse Guitar Tabs – Washya

CD, Sheet music, Poster

Do you like The Southern Curse? Share with your friends now
Tabs
-----------------------------------------------------------------------------
-----------------------------------------------------------------------------
Tuning: Standard (EBGDAE)
Intro (Very Heavy Palm Muting) (1's not 10's)
E|--------------------------------------------------------------|
B|--------------------------------------------------------------|
G|--------------------------------------------------------------|
D|--------------------------------------------------------------|
A|--------------------------------------------------------------|
E|-010101010101010101010101010101010101010101010101010101010101-|
PM ************************************************************

Main Riff/Chorus
E|-----------------------------------|
B|-----------------------------------|
G|-----------------------------------|
D|-----------------------------------|
A|-------2h3------3p2------2---22-45-|
E|-0h111-----0h11-----0h1h---2-00-23-|
PM *****     ****     ****   *

Part 2
E|-------------------------|
B|-------------------------|
G|-------------------------|
D|-------------------------|
A|-333-222-333-222-333-222-|
E|-111-000-111-000-111-000-|
PM *** *** *** *** *** *** 

Verses
E|---------------------------------------------|
B|---------------------------------------------|
G|---------------------------------------------|
D|---------------------------------------------|
A|-555-xxx-555-xxx-555-xxx-555-xxx-555-222-4/7-|
E|-333-xxx-333-xxx-333-xxx-333-xxx-333-000-2/5-|

Solo (played Fast)
E|----------------------------------------------------------------------|
B|-----17---------17----------------------------------------------------|
G|-16b----16--16b----16-14-16b-16bp14~----14h15p13~---------------------|
D|-------------------------------------12-----------12h14~-14p12--------|
A|---------------------------------------------------------------11-----|
E|------------------------------------------------------------------12~-|

E|----------------------------------------------------------------------|
B|----------------------------------------------------------------------|
G|-------------------------------------------13h15h16-13h15h16----------|
D|-------------------------11h13h14-11h13h14-------------------13h15h16-|
A|---------9h11h12-9h11h12----------------------------------------------|
E|-9h11h12--------------------------------------------------------------|

E|-------------------------------------------------------16h18h19----20~-|
B|----------------------------------------------16h18h19----------18-----|
G|----------14h16h17-14h16h17----------14h16h17--------------------------|
D|-13h15h16-------------------14h16h17-----------------------------------|
A|-----------------------------------------------------------------------|
E|-----------------------------------------------------------------------|

E|-20p17p15h17h20p17p15h20p16p15h-20b-20h22----22p20----20p19----20p17--|
B|------------------------------------------22-------21-------18--------|
G|----------------------------------------------------------------------|
D|----------------------------------------------------------------------|
A|----------------------------------------------------------------------|
E|----------------------------------------------------------------------|

E|-----17p15h16-------------------------------------------------------------|
B|--18----------17----17-----17-----17--------------------------------------|
G|-----------------16b---16b----16b---16b-14--------------------------------|
D|--------------------------------------------16-16-16p14-------------------|
A|--------------------------------------------------------16b16161616p14----|
E|-----------------------------------------------------------------------12-|

E|----------------------------------------------------------8p7h10/12~-|
B|-----7-----7-----7-7-----7---9b------------------8p7h8h10------------|
G|-----7-----7-----7-7-----7---9b7~-7h8p7---7h8h10---------------------|
D|-999---999---999-----999---9------------9----------------------------|
A|---------------------------------------------------------------------|
E|---------------------------------------------------------------------|

E|-12h15p12h1515p12h15p12h1515p12----12h15p12h1515p12h15p12h1515p12----|
B|--------------------------------15--------------------------------15-|
G|---------------------------------------------------------------------|
D|---------------------------------------------------------------------|
A|---------------------------------------------------------------------|
E|---------------------------------------------------------------------|

E|-13h16p13h1616p13h16p13h1616p13----13----13----------------------13--|
B|--------------------------------16----16----16p15p13----13h15h16-----|
G|-----------------------------------------------------14--------------|
D|---------------------------------------------------------------------|
A|---------------------------------------------------------------------|
E|---------------------------------------------------------------------|

E|----------------------13-----16-----16-----16h19p16----16h19p16----16-|
B|-16p15p13----13h15h16----17b----17b----17b----------19----------18----|
G|----------14----------------------------------------------------------|
D|----------------------------------------------------------------------|
A|----------------------------------------------------------------------|
E|----------------------------------------------------------------------|

E|-16h19p16----16h19p16----16h19p16----17p16----16h18p16----16h18p16----|
B|----------19----------18----------19-------17----------17----------17-|
G|----------------------------------------------------------------------|
D|----------------------------------------------------------------------|
A|----------------------------------------------------------------------|
E|----------------------------------------------------------------------|

E|-16h18p16-----16-----16-----16-16b-------20b-22~-|
B|----------17b----17b----17b----17b-16h17/21b-----|
G|-------------------------------------------------|
D|-------------------------------------------------|
A|-------------------------------------------------|
E|-------------------------------------------------|





Comments


Popular Washya tabs & chords
Better Now Forever Tabs
Blood Of The Empress Tabs
City Lights 1 Tabs
Drifting Through Life Tabs
Efishent Tabs
Open Sea Tabs
Powerhouse Tabs
Shine Tabs
Siljan Tabs
The Beginning Of The War Tabs


Song lyrics



↑ Back to top | Tablatures and chords are parodies/interpretations of the original songs. You may use it for private study, scholarship, research or language learning purposes only
© 2014 AZChords.com Contact us | Privacy policy | DMCA | Add/correct tabs | Request tabs | Top 50 tabs