» » »

Washya, Technical Difficulties Tabs (ver.1)

Artists:  A B C D E F G H I J K L M N O P Q R S T U V W X Y Z # 

Technical Difficulties Tabs (ver.1)

Washya Tabs
Rating:
0/5 (0 votes)
Technical Difficulties lessons Tabs too difficult? Try these video lessons and learn fast
                -------------------------------------------------------------------------------
-------------------------------------------------------------------------------
Tuning: Standard (ebgDAE)
Intro
e|-------------------------------------------|
b|-------------------------------------------|
g|-------------------------------------------|
D|-------------------------------------------|
A|-------------------------------------------|
E|-00-7-0-8-00-7h8p7-5-3-00-7-0-8-00-6-5-3-0-|
PM **   *   **           **   *   ** 

Part 2
e|------------------------------------------------|
b|------------------------------------------------|
g|------------------------------------------------|
D|--------------------------------------5---------|
A|----10----9----10p9p7-------7----6------6h7p5\--|
E|-00----00---00--------9\-00---00---00-----------|
PM **    **   **           **   **   ** 

Main Riff/Chorus
e|-------------------------------|
b|-------------------------------|
g|-------------------------------|
D|-------------------------------|
A|---------1---1---3-1-3-1-----1-|
E|-0-3-0-3---3---3---------2-3---|
PM * * * * * * * * * * * *          

Part Before Solo
e|-------------------------|
b|-------------------------|
g|-------------------------|
D|-44-------4b-2h4p2-------|
A|-44-2---2----------4---4-|
E|------4--------------3-2-|
PM    * * *            

Solo
e|-------------------------------------------------------------------------|
b|-------------------------------------------------------------------------|
g|----------------------------------------------------------------10-12-15-|
D|-------------------------------------------------------10-12-15----------|
A|-------------------10-12-15----------10-12-15-10-12-15-------------------|
E|-10-12-15-10-12-15----------10-12-15-------------------------------------|
PM ******************************************************************
e|----------------------------10-12-15-10-12-15~-12h19p12h19p12h20p12t21--|
b|----------10-12-15-10-12-15---------------------------------------------|
g|-10-12-15---------------------------------------------------------------|
D|------------------------------------------------------------------------|
A|------------------------------------------------------------------------|
E|------------------------------------------------------------------------|

e|-12t21p12t21b-21-22-21-19-20-19-17-18-17-16-17-16-14-15-14-12----------|
b|--------------------------------------------------------------10-9-7---|
g|-----------------------------------------------------------------------|
D|-----------------------------------------------------------------------|
A|-----------------------------------------------------------------------|
E|-----------------------------------------------------------------------|

e|--------------------------------------------------------------|
b|------------------------------8-7---7-------------------------|
g|-9-7-------------------8-7-10-----9---9-7---7-----------------|
D|-----7-99999-7-----7-9--------------------9---9-7---7---------|
A|---------------9-7--------------------------------9---9-7-9---|
E|------------------------------------------------------------7-|
            

comments powered by Disqus
↑ Back to top | Washya Tabs for Technical Difficulties. Lyrics for acoustic guitar and electric guitar. Tablatures and chords are parodies/interpretations of the original songs. You may use it for private study, scholarship, research or language learning purposes only