» » »

Washya, Tare Tabs (ver.1)

Artists:  A B C D E F G H I J K L M N O P Q R S T U V W X Y Z # 

Tare Tabs (ver.1)

Washya Tabs
 Rating:
4/5 (4 votes)
Tare lessons Tabs too difficult? Try these video lessons and learn fast
                -----------------------------------------------------------------------------
-----------------------------------------------------------------------------
Tuning: Drop D (DADGBE)
Intro
E|-----------------------------------------------------------|
B|-----------------------------------------------------------|
G|-----------------------------------------------------------|
D|-----------------------------------------------444-3-2-----|
A|-33333333-11111111-555555555-66666666-33333333-222-1-0-1/3-|
D|-33333333-11111111-555555555-66666666-33333333---------1/3-|

Verses
E|-------------------------------------------------------|
B|-------------------------------------------------------|
G|-------------------------------------------------------|
D|---------------------------------3333------------------|
A|-0-00-2\1-0-1-0-1111-0-2\1-0-1-0-1111-0-2\1-0-1-0-6665-|
D|-0-00-2\1-0-1-0-1111-0-2\1-0-1-0------0-2\1-0-1-0-6665-|

Chorus
E|------------------------------------------|
B|------------------------------------------|
G|------------------------------------------|
D|------------------------------------------|
A|-0-6-5-0-3-5-0-3-2-0-1-3/8887-5-7-8-7-3-5-|
D|-0-6-5-0-3-5-0-3-2-0-1-3/8887-5-7-8-7-3-5-|
            
Submit corrections

comments powered by Disqus
↑ Back to top | Washya Tabs for Tare. Lyrics for acoustic guitar and electric guitar. Tablatures and chords are parodies/interpretations of the original songs. You may use it for private study, scholarship, research or language learning purposes only