>
 >
Tainted Future

Tainted Future Guitar Tabs

Washya - Tainted Future chords, tabs, tablatures, lyrics

Guitar lessons | Add/correct | Request | Top 50 tabs Artists:  A B C D E F G H I J K L M N O P Q R S T U V W X Y Z 0-9

Tainted Future Guitar Tabs – Washya

CD, Sheet music, Poster

Do you like Tainted Future? Share with your friends now
Tabs
-----------------------------------------------------------------------------
-----------------------------------------------------------------------------
Tuning: Down one whole Step (DCGFAD)
Intro
D|-------------------------------|
A|-------------------------------|
F|-------------------------------|
C|-------3-------5-------3-------|
G|-2-3-4-1-2-3-4-3-2-3-4-1-3-4-5-|
D|-0-1-2---0-1-2---0-1-2---1-2-3-|

Part 2
D|-------------------------------|
A|-------------------------------|
F|-------------------------------|
C|-------3-------5-------3-------|
G|-2-3-4-1-2-3-4-3-2-3-4-1-3-4-5-|
D|-0-1-2---0-1-2---0-1-2---1-2-3-|
PM * * *   * * *   * * *   * * * 

Part 3
D|-------------------------------------------------------|
A|-------------------------------------------------------|
F|-------------------------------------------------------|
C|-----------------------------------------------3/5-----|
G|----------1---------------3--------------------1/3-3/4-|
D|-11111111---2p11111111111---22222222-2-2222222-----1/2-|
PM ********     ***********   ******** * ******* 

Verses
D|----------------------------------------------------------------|
A|----------------------------------------------------------------|
F|----------------------------------------------------------------|
C|-----------------------------------------------------------14~\-|
G|--------------------------------------------------12-12-12------|
D|-00-000000-00000-0000-00000-0000-00000-0000/12h13---------------|
PM ** ****** ***** **** ***** **** ***** **** 

Chorus                       (x3)
D|-------------------------------|-------------------------------|
A|-------------------------------|-------------------------------|
F|-------------------------------|-------------------------------|
C|-------3-------5-------3-------|-------3-------5-------3-------|
G|-2-3-4-1-2-3-4-3-2-3-2-1-6-7-8-|-2-3-4-1-2-3-4-3-2-3-4-1-5-4-3-|
D|-0-1-2---0-1-2---0-1-4---4-5-6-|-0-1-2---0-1-2---0-1-2---3-2-1-|

Interlude
D|--------------------------|
A|--------------------------|
F|--------------------------|
C|-----2-----4-----6-----3*-|
G|---4-----6-----8----------|
D|-2-----4-----6-----6p5----|x3

Solo
D|-------------------------------------------------14----15~-|
A|------------------------------------14p12h14b-12----12-----|
F|---------------------12h14----12h14------------------------|
C|---------12----14p12-------14------------------------------|
G|-/12~-14----14---------------------------------------------|
D|-----------------------------------------------------------|

D|-18-18-18-18-18-18p15p12h18-18-18-18-18p15p12h18-18-18-18-18p15p12-|
A|-------------------------------------------------------------------|
F|-------------------------------------------------------------------|
C|-------------------------------------------------------------------|
G|-------------------------------------------------------------------|
D|-------------------------------------------------------------------|

D|-12h19-19-19-19-19p15p12h19-19-19-19-19p15p12/19p15p12-------------------|
A|-------------------------------------------------------19p15p12----------|
F|----------------------------------------------------------------19p15p12-|
C|-------------------------------------------------------------------------|
G|-------------------------------------------------------------------------|
D|-------------------------------------------------------------------------|

D|------------------------------------------------------------------|
A|------------------------------------------------------15----17p15-|
F|------------------------------------------------15-15----15-------|
C|-19p15p12-----------------------13----12----14~-------------------|
G|----------19p15p12-----------12----12----12-----------------------|
D|-------------------19p15p12~--------------------------------------|

D|----------------------------------------16h19p16----------------16h19p16-|
A|-----15----17----18-18~-/19p16----16h19----------19p16----16h19----------|
F|-/15----15----15---------------17----------------------17----------------|
C|-------------------------------------------------------------------------|
G|-------------------------------------------------------------------------|
D|-------------------------------------------------------------------------|

D|----------------16h19p16----------------16h19p16----------------|
A|-19p16----16h19----------19p16----16h19----------19p18p16-------|
F|-------17----------------------17-------------------------12h14-|
C|----------------------------------------------------------------|
G|----------------------------------------------------------------|
D|----------------------------------------------------------------|

D|--------------------------------------------------------------16~-|
A|--------------14----------15----------14----------14-------14-----|
F|-----12-11-12----12-11-12----13-12-13----12-11-12----12-11--------|
C|--14--------------------------------------------------------------|
G|------------------------------------------------------------------|
D|------------------------------------------------------------------|

D|-------16----------14----------12p11-----------|----------------------|
A|-14-14----14\12-12----12\10-10-------10h12p10~-|----------------------|
F|-----------------------------------------------|----------------------|
C|-----------------------------------------------|----------------------|
G|---------------------------------------------|----------------------5-|
D|---------------------------------------------|-00-3p2p0-3p2p0-3p2p0-3-|
PM                                               ** ***** ***** ***** 

D|------------------------|-3h2p3/5h6p5/6h9p8h9/10h12p10/13p12h13/16p15h16-|
A|------------------------|------------------------------------------------|
F|------------------------|------------------------------------------------|
C|----------------------3-|------------------------------------------------|
G|----------------------1-|------------------------------------------------|
D|-00-3p2p0-3p2p0-3p2p0---|------------------------------------------------|
PM ** ***** ***** ***** 

D|-16p15/17p16h17/19p18h21b-21b-22~-|
A|----------------------------------|
F|----------------------------------|
C|----------------------------------|
G|----------------------------------|
D|----------------------------------|

Chorus                       (x3)
D|-------------------------------|-------------------------------|
A|-------------------------------|-------------------------------|
F|-------------------------------|-------------------------------|
C|-------3-------5-------3-------|-------3-------5-------3-------|
G|-2-3-4-1-2-3-4-3-2-3-2-1-6-7-8-|-2-3-4-1-2-3-4-3-2-3-4-1-5-4-3-|
D|-0-1-2---0-1-2---0-1-4---4-5-6-|-0-1-2---0-1-2---0-1-2---3-2-1-|

Verses
D|----------------------------------------------------------------|
A|----------------------------------------------------------------|
F|----------------------------------------------------------------|
C|-----------------------------------------------------------14~\-|
G|--------------------------------------------------12-12-12------|
D|-00-000000-00000-0000-00000-0000-00000-0000/12h13---------------|
PM ** ****** ***** **** ***** **** ***** ****





Comments


Popular Washya tabs & chords
City Lights 1 Tabs
Deceiver Tabs
Doused With Fire Tabs
Iceland Warrior Tabs
Lost World Tabs
Overcame Illness Tabs
Pulsating Heart Tabs
Quiver Tabs
Siljan Tabs
Undercover Tabs


Song lyrics



↑ Back to top | Tablatures and chords are parodies/interpretations of the original songs. You may use it for private study, scholarship, research or language learning purposes only
© 2014 AZChords.com Contact us | Privacy policy | DMCA | Add/correct tabs | Request tabs | Top 50 tabs