» » »

Washya, Sympathetic Souls Tabs (ver.1)

Artists:  A B C D E F G H I J K L M N O P Q R S T U V W X Y Z # 

Sympathetic Souls Tabs (ver.1)

Washya Tabs
Rating:
0/5 (0 votes)
Sympathetic Souls lessons Tabs too difficult? Try these video lessons and learn fast
                -----------------------------------------------------------------------------
-----------------------------------------------------------------------------

Tuning: Drop C (DAFcgc)
Intro
D|------------------------------------------------------------------------|
A|------------------------------------------------------------------------|
F|---------------------------------------------------------7-7-7-7-----7~-|
C|-2-2--2-2-2--2-2--2-2-2-2-x-x-3-3--3-3-3--3-3--3-3-3-3-x-7-7-7-7-5-5----|
G|-2-2--2-2-2--2-2--2-2-2-2-x-x-3-3--3-3-3--3-3--3-3-3-3-x-5-5-5-5-5------|
C|-2-2--2-2-2--2-2--2-2-2-2-x-x-3-3--3-3-3--3-3--3-3-3-3-x---------5------|

Verses
D|--------------------------------------------10-13~--------------------|
A|---------------------------------------9-12---------------------------|
F|-----------------6-6-8-8----------8-11--------------------------7-9~--|
C|-2-2-2-2-4-4-4-4-6-6-8-8-----7-10-----------------2-x-5-7h8-7-9-------|
G|-2-2-2-2-4-4-4-4-4-4-6-6-6-9----------------------2-x-5-7h8-----------|
C|-2-2-2-2-4-4-4-4----------------------------------2-x-5-7h8-----------|

Chorus "You've been let go by SYMPATHETIC SOULS!!!!!"
D|--------------------------------------------------------------6-9~----|
A|----------------------------------------------------------5-8---------|
F|-----------------------------5-8~-9-9\8-8\7-7\5-5\4-4-4-7-------------|
C|-----------1-1/2-2-2-----4-7------9-9\8-8\7-7\5-5\4-4-----------------|
G|-----------1-1/2-2-2-3-6----------7-7\6-6\5-5\3-3\2-2-----------------|
C|-pickslide-1-1/2-2-2--------------------------------------------------|
            
Interlude
D|----------15-14-12-14-12-10--------13-12-10-12-10-8-------11-10-----------|
A|-12-12-12------------------10-10-10-----------------8-8-8-------8-10-8----|
F|-----------------------------------------------------------------------7~-|
C|--------------------------------------------------------------------------|
G|--------------------------------------------------------------------------|
C|--------------------------------------------------------------------------|

Verses
D|--------------------------------------------10-13~--------------------|
A|---------------------------------------9-12---------------------------|
F|-----------------6-6-8-8----------8-11--------------------------7-9~--|
C|-2-2-2-2-4-4-4-4-6-6-8-8-----7-10-----------------2-x-5-7h8-7-9-------|
G|-2-2-2-2-4-4-4-4-4-4-6-6-6-9----------------------2-x-5-7h8-----------|
C|-2-2-2-2-4-4-4-4----------------------------------2-x-5-7h8-----------|


Chorus "You've been let go by SYMPATHETIC SOULS!!!!!"
D|--------------------------------------------------------------6-9~----|
A|----------------------------------------------------------5-8---------|
F|-----------------------------5-8~-9-9\8-8\7-7\5-5\4-4-4-7-------------|
C|-----------1-1/2-2-2-----4-7------9-9\8-8\7-7\5-5\4-4-----------------|
G|-----------1-1/2-2-2-3-6----------7-7\6-6\5-5\3-3\2-2-----------------|
C|-pickslide-1-1/2-2-2--------------------------------------------------|

Interlude
D|----------15-14-12-14-12-10--------13-12-10-12-10-8-------11-10-----------|
A|-12-12-12------------------10-10-10-----------------8-8-8-------8-10-8----|
F|-----------------------------------------------------------------------7~-|
C|--------------------------------------------------------------------------|
G|--------------------------------------------------------------------------|
C|--------------------------------------------------------------------------|

Guitar Solo
D|-----------------------------------------------12-15-12-14----------------|
A|-12----12---------------------------12----12-15-------------12-14---------|
F|-12b14-12b14~-14~-14-------12-14-15----15-------------------------12------|
C|---------------------12-14------------------------------------------------|
G|--------------------------------------------------------------------------|
C|--------------------------------------------------------------------------|

D|-------------------------------------------------------------13-15----|
A|----------------------------------------------------15-14-12----------|
F|-14----14h15p14h15----------12-13-15----------12-13-------------------|
C|----16-------------12-13-15----------12-13-15-------------------------|
G|----------------------------------------------------------------------|
C|----------------------------------------------------------------------|

D|-17-19-20~----------------------------------------------12-13-15~-----|
A|-----------15-17-19----------------------------12-13-15---------------|
F|--------------------15-17-19----------15-17-19------------------------|
C|-----------------------------15-17-19---------------------------------|
G|----------------------------------------------------------------------|
C|----------------------------------------------------------------------|

D|-15h16h17p15p13--------------------------------------------------------|
A|----------------15-12----------12-15-12-15-17--------------------------|
F|----------------------15-12-15----------------15-13-12-13-15-12-13-15--|
C|-----------------------------------------------------------------------|
G|-----------------------------------------------------------------------|
C|-----------------------------------------------------------------------|

D|------------------------------------------------------------15~-|
A|---------------------------10-11-13-11-10-------------12-13-----|
F|-15p13p12h13p12h13p12--15~----------------11-13-12-15-----------|
C|----------------------------------------------------------------|
G|----------------------------------------------------------------|
C|----------------------------------------------------------------|

Interlude
D|----------15-14-12-14-12-10--------13-12-10-12-10-8-------11-10-----------|
A|-12-12-12------------------10-10-10-----------------8-8-8-------8-10-8----|
F|-----------------------------------------------------------------------7~-|
C|--------------------------------------------------------------------------|
G|--------------------------------------------------------------------------|
C|--------------------------------------------------------------------------|

Chorus "You've been let go by SYMPATHETIC SOULS!!!!!"
D|--------------------------------------------------------------6-9~----|
A|----------------------------------------------------------5-8---------|
F|-----------------------------5-8~-9-9\8-8\7-7\5-5\4-4-4-7-------------|
C|-----------1-1/2-2-2-----4-7------9-9\8-8\7-7\5-5\4-4-----------------|
G|-----------1-1/2-2-2-3-6----------7-7\6-6\5-5\3-3\2-2-----------------|
C|-pickslide-1-1/2-2-2--------------------------------------------------|

Verses
D|--------------------------------------------10-13~--------------------|
A|---------------------------------------9-12---------------------------|
F|-----------------6-6-8-8----------8-11--------------------------7-9~--|
C|-2-2-2-2-4-4-4-4-6-6-8-8-----7-10-----------------2-x-5-7h8-7-9-------|
G|-2-2-2-2-4-4-4-4-4-4-6-6-6-9----------------------2-x-5-7h8-----------|
C|-2-2-2-2-4-4-4-4----------------------------------2-x-5-7h8-----------|

Outro
D|----------------------------|
A|----------------------------|
F|----------------------------|
C|-2-2-2--2-2--x-x-0-0-0--0-0-|
G|-2-2-2--2-2--x-x-0-0-0--0-0-|
C|-2-2-2--2-2--x-x-0-0-0--0-0-|
            

comments powered by Disqus
↑ Back to top | Washya Tabs for Sympathetic Souls. Lyrics for acoustic guitar and electric guitar. Tablatures and chords are parodies/interpretations of the original songs. You may use it for private study, scholarship, research or language learning purposes only