» » »

Washya, Suspense Tabs (ver.1)

Artists:  A B C D E F G H I J K L M N O P Q R S T U V W X Y Z # 

Suspense Tabs (ver.1)

Washya Tabs
 Rating:
4/5 (4 votes)
Suspense lessons Tabs too difficult? Try these video lessons and learn fast
1
                -----------------------------------------------------------------------------
-----------------------------------------------------------------------------
Tuning: Drop C (DAFCGC)
Intro
D|----------------------------------|
A|----------------------------------|
F|----------------------------------|
C|----------------------------------|
G|-0-1-1-0-11-0-0-4443-0-11-0-1-1-0-|
C|-0-1-1-0-11-0-0-4443-0-11-0-1-1-0-|
PM *     *    * *      *    *     * 

Part 2/Main Riff/Chorus/Play Very Fast
D|---------------------------------------------|
A|---------------------------------------------|
F|---------------------------------------------|
C|---------------------------------------------|
G|-0-1-3-4-3-0-3-6-0-3-2-0-1-2-4-0-5-6-8-0-1-3-|
C|-0-1-3-4-3-0-3-6-0-3-2-0-1-2-4-0-5-6-8-0-1-3-|

Verses
D|-----------------------------------------|
A|-----------------------------------------|
F|-----------------------------------------|
C|-----------------------------------------|
G|-0-333h5-3-5-6-1-3-4-0-333p2-0-1h3-0-3h5-|
C|-0-333h5-3-5-6-1-3-4-0-333p2-0-1h3-0-3h5-|
            
Submit corrections

comments powered by Disqus
↑ Back to top | Washya Tabs for Suspense. Lyrics for acoustic guitar and electric guitar. 1 Tablatures and chords are parodies/interpretations of the original songs. You may use it for private study, scholarship, research or language learning purposes only