» » »

Washya, Survival Instinct Tabs (ver.1)

Artists:  A B C D E F G H I J K L M N O P Q R S T U V W X Y Z # 

Survival Instinct Tabs (ver.1)

Washya Tabs
 Rating:
4/5 (4 votes)
Survival Instinct lessons Tabs too difficult? Try these video lessons and learn fast
1
                -----------------------------------------------------------------------------
-----------------------------------------------------------------------------

Tuning: Standard (EADgbe)
Intro
e|-------------------------------------------------|
B|-------------------------------------------------|
G|-----------------------------2-------------------|
D|-2-2--<5>--2-2--<5>--2-2---2---------------------|
A|-2-2-------2-2-------2-2-0-----------------------|
E|-0-0-------0-0-------0-0-------pickslide//-------|
pm . .       . .       . .  


e|------------------------------------------------------------------|
B|------------------------------------------------------------------|
G|--------------------------------------------2-2-3-3-4-4-4-4-5-5-5-|
D|-2-2-2-2-2-2--2-2-2---2-2-2-2-2---2-2-2-2-2-2-2-3-3-4-4-4-4-5-5-5-|
A|-2-2-2-2-2-2--2-2-2---2-2-2-2-2---2-2-2-2-2-0-0-1-1-2-2-2-2-3-3-3-|
E|-0-0-0-0-0-0--0-0-0---0-0-0-0-0---0-0-0-0-0-----------------------|
pm . . . . . .  . . .   . . . . .   . . . . . . . . . . . . . . . .  

Main Riff
e|---------------------------------------------------------|
B|---------------------------------------------------------|
G|---------------------------------------------------------|
D|-----------------------3---------------------------5-4-3-|
A|---5-3-----3-0-5-3-0-5---0-3-----------------------5-4-3-|
E|-0-----0-5-------------------5-0-3-5-0-6-5-3-0-3-5-3-2-1-|
pm                             . . . . . . . . . . .     

Verses
e|--------------------------------------------------------|
B|--------------------------------------------------------|
G|--------------------------------------------------------|
D|--------------------------------------------------------|
A|---------------------------------6-6h7p6----------------|
E|-0-6-3-5-6-0-6-3-5-6-0-6-3-5-6-0---------8-7-5-3-5-6----|
pm . . . . . . . . . . . . . . . .         . . . . . . 

Chorus
e|---------------------------------------------------------------|
B|--------------------------12-12\11-11--------------------------|
G|--------------------------12-12\11-11--------------------------|
D|-4-4/7-7-7\5-5-5-2-2-2-2--10-10\9--9--11-11-9-9-7-7-7-7-7-7----|
A|-4-4/7-7-7\5-5-5-2-2-2-2--------------11-11-9-9-7-7-7-7-7-7----|
E|-2-2/5-5-5\3-3-3-0-0-0-0--------------9--9--7-7-5-5-5-5-5-5----|

e|------------------------------------------------------------------|
B|------------------------------------------------------------------|
G|---------------------------------7-7-7-4-4-4-----------------4~---|
D|-5-5-5-5-5-5-5-3-3-3-3-3-3-3-3-3-7-7-7-4-4-4-------------4-6------|
A|-5-5-5-5-5-5-5-3-3-3-3-3-3-3-3-3-5-5-5-2-2-2-------3-5-6----------|
E|-3-3-3-3-3-3-3-1-1-1-1-1-1-1-1-1-------------3-5-6----------------|
pm                                             . . . . . . . . .    

Main Riff
e|---------------------------------------------------------|
B|---------------------------------------------------------|
G|---------------------------------------------------------|
D|-----------------------3---------------------------5-4-3-|
A|---5-3-----3-0-5-3-0-5---0-3-----------------------5-4-3-|
E|-0-----0-5-------------------5-0-3-5-0-6-5-3-0-3-5-3-2-1-|
pm                             . . . . . . . . . . .     

Verses
e|--------------------------------------------------------|
B|--------------------------------------------------------|
G|--------------------------------------------------------|
D|--------------------------------------------------------|
A|---------------------------------6-6h7p6----------------|
E|-0-6-3-5-6-0-6-3-5-6-0-6-3-5-6-0---------8-7-5-3-5-6----|
pm . . . . . . . . . . . . . . . .         . . . . . . 


Guitar solo
e|----------------------------------------------------------------12~-|
B|-------------------------------------------------------------15-----|
G|----------------------------------------------12----12-14-16--------|
D|-------------------------------------11-12-15----15-----------------|
A|-------------------11-12-15-11-12-15--------------------------------|
E|-11-12-15-11-12-15--------------------------------------------------|


e|-12-15-14-12-15-14-12----------------------------------------------------|
b|----------------------15-14-12-15-14----15-------------------------------|
g|-------------------------------------12----12-15-14----------------------|
D|----------------------------------------------------12-15----------------|
A|----------------------------------------------------------12-15----------|
E|----------------------------------------------------------------12-------|

e|-------------------------------------------------------------22----22~--|
b|----------------------------------------------------------20----20------|
g|-------------------------------16-18-19----18----18----18---------------|
D|----------------------------14----------17----17----17------------------|
A|-------12-15----15-17-15-12---------------------------------------------|
E|-12-15-------12---------------------------------------------------------|

Then Back to Main Riff


************************************

| /   slide up
| \   slide down
| h   hammer-on
| p   pull-off
| ~   vibrato
| +   harmonic
| x   Mute note
| b   Bend
| pb  Pre-bend
| br  Bend release
| pbr Pre-bend release
| brb Bend release bend

************************************
            
Submit corrections

comments powered by Disqus
↑ Back to top | Washya Tabs for Survival Instinct. Lyrics for acoustic guitar and electric guitar. 1 Tablatures and chords are parodies/interpretations of the original songs. You may use it for private study, scholarship, research or language learning purposes only