» » »

Washya, Sunken Soul Tabs (ver.1)

Artists:  A B C D E F G H I J K L M N O P Q R S T U V W X Y Z # 

Sunken Soul Tabs (ver.1)

Washya Tabs
 Rating:
4/5 (4 votes)
Sunken Soul lessons Tabs too difficult? Try these video lessons and learn fast
                -----------------------------------------------------------------------------
-----------------------------------------------------------------------------
Tuning: D Standard (DAFCGD)
Intro
D|------------------------------|
A|------------------------------|
F|---------10---------10-8h10p8-|
C|---7p5h7------7p5h7-----------|
G|------------------------------|
D|-0----------0-----------------|
PM *          *

Verses
D|-------------------------------------------------------------------|
A|-------------------------------------------------------------------|
F|-------------------------------------------------------------------|
C|-------------------------------------------------------------------|
G|-2--------------------------2--------------2---------3-----3/6\5-2-|
D|-0-00-0000-000-0000-00-0000-0-000-0-0-0000-0-000-000-1-000-1/4\3-0-|
PM   ** **** *** **** ** ****   *** * * ****   *** ***   *** 

Chorus
D|-------------------------------------------------------|
A|------------------14~----------------------------------|
F|-/15~\-12-------/-----11-------------------------------|
C|-------12-------------11-------------------------------|
G|-------10-2-4-5-------9--4-5-7-----12----12h14~\-3-5-7-|
D|----------0-2-3----------2-3-5-/13----13---------1-3-5-|

Verses
D|-------------------------------------------------------------------|
A|-------------------------------------------------------------------|
F|-------------------------------------------------------------------|
C|-------------------------------------------------------------------|
G|-2--------------------------2--------------2---------3-----3/6\5-2-|
D|-0-00-0000-000-0000-00-0000-0-000-0-0-0000-0-000-000-1-000-1/4\3-0-|
PM   ** **** *** **** ** ****   *** * * ****   *** ***   *** 

Solo
D|-----------------------------------------------------------19----19~-|
A|-----17----------------17----------------17-------------------17-----|
F|-/16----16p15p13h15h16----16p15p13h15h16----16p15p13h15h16-----------|
C|---------------------------------------------------------------------|
G|---------------------------------------------------------------------|
D|---------------------------------------------------------------------|

D|-19-19-19-19-19-19p15----19-19-19-19-19-19p15----20-20-20-20-20p16----|
A|----------------------17----------------------17-------------------18-|
F|----------------------------------------------------------------------|
C|----------------------------------------------------------------------|
G|----------------------------------------------------------------------|
D|----------------------------------------------------------------------|

D|-20-20-20-20-20p16----20b--20h21p-----------18-------18h19p17----16p14-|
A|-------------------18-------------18b-18-18----18p17----------17-------|
F|-----------------------------------------------------------------------|
C|-----------------------------------------------------------------------|
G|-----------------------------------------------------------------------|
D|-----------------------------------------------------------------------|

D|----16p14h16p14----14p12----12p10----|
A|-16-------------14-------14-------12-|
F|-------------------------------------|
C|-------------------------------------|
G|-------------------------------------|
D|-------------------------------------|

D|-------------------------------------------------------------------------|
A|-------------------------------------------------------------------------|
F|-4br2---2-4br2---2--------------------/99-9-9-9-9/1212-12-12-12/14-14-14-|
C|-4br2-4-2-4br2-4-2h4h5p4p2------------/99-9-9-9-9/1212-12-12-12/14-14-14-|
G|------4--------4-----------4p3p2-----------------------------------------|
D|---------------------------------5p4p2-----------------------------------|

D|-----------------|
A|-----------------|
F|-/16-16-16-16-16-|
C|-/16-16-16-16-16-|
G|-----------------|
D|-----------------|
            
Submit corrections

comments powered by Disqus
↑ Back to top | Washya Tabs for Sunken Soul. Lyrics for acoustic guitar and electric guitar. Tablatures and chords are parodies/interpretations of the original songs. You may use it for private study, scholarship, research or language learning purposes only