» » »

Washya, Suicidal Rage Tabs (ver.1)

Artists:  A B C D E F G H I J K L M N O P Q R S T U V W X Y Z # 

Suicidal Rage Tabs (ver.1)

Washya Tabs
 Rating:
4/5 (4 votes)
Suicidal Rage lessons Tabs too difficult? Try these video lessons and learn fast
1
                -----------------------------------------------------------------------------
-----------------------------------------------------------------------------
Tuning: Drop D (DADGBE)
Intro (Lead 1)
e|---------------------------|
b|---------------------------|
g|----9-9h10p9\2-2/5\2-------|
D|-0~------------------3/5---|
A|-0~----------------------5-|
D|-0~------------------------|

Lead 2
e|---------------------------------------------------------|
b|---------------------------------------------------------|
g|----9-9h10p9\2-2/5---5-7h8p7-5---5-----------------------|
D|-0~----------------3-----------7-----5-7-5/9-7-----------|
A|-0~--------------------------------7-----------7/9\2-----|
D|-0~--------------------------------------------------3/5-|

Intro(Rhythm) (also Verses But palm muted)
e|--------------------------------------------------------------------|
b|--------------------------------------------------------------------|
g|--------------------------------------------------------------------|
D|-0~-----------------------9-----------------9\8\7-------------------|
A|-0~-----8p7---8p7---8p7---7-8p7---8p7---8p7-7\6\5---8p7---8p7---8p7-|
D|-0~//xx-8p7-x-8p7-x-8p7-x---8p7-x-8p7-x-8p7-------x-8p7-x-8p7-x-8p7-|

e|--------------------------------|
b|--------------------------------|
g|--------------------------------|
D|-12\11\10-----------------5/6/7-|
A|-10\9\-8--8p7---8p7---8p7-3/4/5-|
D|----------8p7-x-8p7-x-8p7-------|

Main Riff/Chorus
e|--------------------------------------------------------------------------|
b|--------------------------------------------------------------------------|
g|--------------------------------------------------------------------------|
D|--------------------------------------------------------------------------|
A|-88p7-8-5---5-8p7---3-5---6-5---8-5-7-5-4-333-111-222---3-6-5---8p7---3-5-|
D|-88p7-8-5-x-5-8p7-x-3-5-x-6-5-x-8-5-7-5-4-333-111-222-x-3-6-5-x-8p7-x-3-5-|
PM                                          *** *** ***  

Verses
e|--------------------------------------------------------------------|
b|--------------------------------------------------------------------|
g|--------------------------------------------------------------------|
D|-0~-----------------------9-----------------9\8\7-------------------|
A|-0~-----8p7---8p7---8p7---7-8p7---8p7---8p7-7\6\5---8p7---8p7---8p7-|
D|-0~//xx-8p7-x-8p7-x-8p7-x---8p7-x-8p7-x-8p7-------x-8p7-x-8p7-x-8p7-|
 PM       ***   ***   ***     ***   ***   ***         ***   ***   *** 
e|--------------------------------|
b|--------------------------------|
g|--------------------------------|
D|-12\11\10-----------------5/6/7-|
A|-10\9\-8--8p7---8p7---8p7-3/4/5-|
D|----------8p7-x-8p7-x-8p7-------|
PM          ***   ***   ***   

Solo (play fast)
e|----------------------------------------------------------------12~-|
b|-------------------------------------------------------------13-----|
g|-9-----7-----9-----7-----9-----7-----9b-9b-9b-9h12p9h12p9h12--------|
D|-----9---9-7-----9---9-7-----9---9-7--------------------------------|
A|---7-----------7-----------7----------------------------------------|
D|--------------------------------------------------------------------|

e|-12h15p12h15p12h15p12h15p12h15p12h15p12-12h14p12h14p12h14p12h14p12h14-15b-|
b|--------------------------------------------------------------------------|
g|--------------------------------------------------------------------------|
D|--------------------------------------------------------------------------|
A|--------------------------------------------------------------------------|
D|--------------------------------------------------------------------------|

e|-15p13p12----13-12-------------------------------------------------------|
b|----------15-------15p13p12----13-12-------------------------------------|
g|----------------------------15-------15p13p12----13-12-------------------|
D|----------------------------------------------15-------15p13p12----13-12-|
A|----------------------------------------------------------------15-------|
D|-------------------------------------------------------------------------|

e|---------------------------------------------|
b|---------------------------------------------|
g|---------------------------------------------|
D|------------------------------7--------------|
A|-15p13p12----13-12h13p12-10-9---7h9p5h7------|
D|----------15----------------------------3h5~-|
            
Submit corrections

comments powered by Disqus
↑ Back to top | Washya Tabs for Suicidal Rage. Lyrics for acoustic guitar and electric guitar. 1 Tablatures and chords are parodies/interpretations of the original songs. You may use it for private study, scholarship, research or language learning purposes only