» » »

Washya, Spitting Teeth Tabs (ver.1)

Artists:  A B C D E F G H I J K L M N O P Q R S T U V W X Y Z # 

Spitting Teeth Tabs (ver.1)

Washya Tabs
 Rating:
4/5 (4 votes)
Spitting Teeth lessons Tabs too difficult? Try these video lessons and learn fast
1
                -----------------------------------------------------------------------------
-----------------------------------------------------------------------------
Tuning: D Standard (DAFCGD)
Intro/Verses
D|-------0-------------0-----------------0-----|
A|---------0-------------3-----------------3---|
F|-------------------------------------------0-|
C|-----4-----------4-----------0-----4---------|
G|---2---------2-----2-------2-----2---4-------|
D|-0---------0---0---------3-----0-------------|
PM *         *   *         *     * 

Main Riff/Chorus
D|-------------------------------------------------------------------------|
A|-------------------------------------------------------------------------|
F|-------------------------------------------------------------------------|
C|-----------------------7------------------------10-----------------------|
G|-2-----3-----4-----3-2-5--2-----3-----4-----3-2-8--2-----3-----4-----3-2-|
D|-0-000-1-111-2-222-1-0----0-000-1-111-2-222-1-0----0-000-1-111-2-222-1-0-|
PM   ***   ***   ***          ***   ***   ***          ***   ***   ***   

D|-------------|
A|-------------|
F|-------------|
C|-4-----------|
G|-2-4/5\3/4-2-|
D|---2/3\1/2-0-|

Guitar Solo
D|------------------------------------17b--------|
A|----------------------------------------15-15~-|
F|-9-9b-12p9-99p8p6-66p5p3-1---------------------|
C|---------------------------3-3bp1--------------|
G|----------------------------------3------------|
D|-----------------------------------------------|

D|-------------------------------------------------14-12-12~----|
A|-------------------------------------------14-15--------------|
F|-------------------------------14----12h14--------------------|
C|-------------------14----12h14----14--------------------------|
G|-------14----12h14----14--------------------------------------|
D|-12h14----14--------------------------------------------------|
PM ***** ** ** ***** ** ** ***** 

D|-17b------------------------13h17p13----------13h17p13----------13-|
A|-----15b--13h15b-13-15~-/15----------15p14h15----------15p14h15----|
F|-------------------------------------------------------------------|
C|-------------------------------------------------------------------|
G|-------------------------------------------------------------------|
D|-------------------------------------------------------------------|

D|-13h17p13----------17b-15-14h15p14h15b~--------------------|
A|----------15p14h15-------------------------13----15h16p14~-|
F|----------------------------------------14----14-----------|
C|-----------------------------------------------------------|
G|-----------------------------------------------------------|
D|-----------------------------------------------------------|

D|--------------------------------------------15-----15h18~-|
A|-----15h18p15-----15h18p15-----15h18p15-----15-----15-----|
F|-17b----------17b----------17b----------17b----17b--------|
C|----------------------------------------------------------|
G|----------------------------------------------------------|
D|----------------------------------------------------------|
            
Submit corrections

comments powered by Disqus
↑ Back to top | Washya Tabs for Spitting Teeth. Lyrics for acoustic guitar and electric guitar. 1 Tablatures and chords are parodies/interpretations of the original songs. You may use it for private study, scholarship, research or language learning purposes only