» » »

Washya, Spit On You Tabs (ver.1)

Artists:  A B C D E F G H I J K L M N O P Q R S T U V W X Y Z # 

Spit On You Tabs (ver.1)

Washya Tabs
Rating:
0/5 (0 votes)
Spit On You lessons Tabs too difficult? Try these video lessons and learn fast
                -----------------------------------------------------------------------------
-----------------------------------------------------------------------------
Tuning: Drop C (DAFCGC)
Intro
D|----------------------------------------|
A|----------------------------------------|
F|----------------------------------------|
C|------10\9----------4/5-4/5-------------|
G|------8\7-----------2/3-2/3-------------|
C|-0-00-----0-0-000-----------333-5-3-5-6-|
pm . ..     . . ...           ... . . . 

Verses
D|------------------------------------------------------------------------|
A|------------------------------------------------------------------------|
F|------------------------------------------------------------------------|
C|---7-9---5-7----------7-9---7-10-----------3-5---1-3---------------3-5--|
G|-9-----7-----7-8-5--9-----9------9-10-7--5-----3-----3-4-1---3-5-5------|
C|-----------------------------------------------------------5------------|

D|--------------------------------------------------------|
A|--------------------------------------------------------|
F|--------------------------------------------------------|
C|---------------------------------3-5--------------------|
G|-5-6-3---5-7---3-4---------1-3-5-----3-5-22222-333----0-|
C|-------7-----5-----5-6-3-3---------------22222-333-1bp0-|

Part Before Chorus pt 1
D|---------------------------------------------------|
A|---------------------------------------------------|
F|---------------------------------------------------|
C|-----------------------------7/9h10p9h10p9h10/12---|
G|-0-0-2h3p2/5p4h5/8p7p6h7p6h7-----------------------|
C|-0-0-----------------------------------------------|

pt 2
D|-----------------------------------------------------------------|
A|-----------------------------------------------------------------|
F|------8p6p5-------------------------------------------6h8/10/12--|
C|------------8p6-8p6p5-----------------2h4p2/7p6p4h5p4------------|
G|-0-0------------------6-4-6p4p2-4p2h4----------------------------|
C|-0-0-------------------------------------------------------------|

Chorus
D|--------------------------------------------------------------------|
A|--------------------------------------------------------------------|
F|--------------------------------------------------------------------|
C|-8-88---------------------------5-555-5-555-------------------------|
G|-6-66-4-44-7-77-7-1-11-1-3-33-3-3-333-3-333-3-33-3-3-6-66-6-2-222-0-|
C|------4-44-7-77-7-1-11-1-3-33-3-------------3-33-3-3-6-66-6-2-222-0-|

Guitar Solo
D|---------------------------------------------------|
A|---------------------------------------4-2-4-2b~---|
F|-----------------2-------2-------2---2-------------|
C|-----2-------2-4---4-2-4-----2-4---4---------------|
G|-2-4---4-2-4---------------4-----------------------|
C|---------------------------------------------------|

D|-------------------------------------------------------------------------|
A|------------------------------------------------------------------12-14--|
F|-------------------------------------12h14bp12-----------12----12--------|
C|-2p0-4p0-5p0-7p0-8p0-10p0-12p0-12h14-----------14~-12-14----14-----------|
G|-------------------------------------------------------------------------|
C|-------------------------------------------------------------------------|

D|-12b--------12-13-16-13-12-15-13----------------------------------|
A|-12bh14p12~----------------------12-16-13-15----------12----------|
F|---------------------------------------------12-15-13----16-15-13-|
C|------------------------------------------------------------------|
G|------------------------------------------------------------------|
C|------------------------------------------------------------------|

D|-----------------------------------------------------------------------|
A|-------14----------14----------14----------14-------14-------14--------|
F|-15-16----13-15-16----13-15-16----14-12-12----14-12----14-12----14-12--|
C|-----------------------------------------------------------------------|
G|-----------------------------------------------------------------------|
C|-----------------------------------------------------------------------|

D|--------17-19-18-17-18-17-15-14-------------------------------16-------|
A|-15~-15-------------------------14-------------------16-18-19----19-18-|
F|-----------------------------------16-18-19-16-18-19-------------------|
C|-----------------------------------------------------------------------|
G|-----------------------------------------------------------------------|
C|-----------------------------------------------------------------------|

D|-------------------------------------------------12-13-15-17b~--|
A|-16----16----16----16----16----18-17-15-18-17-15----------17b~--|
F|----15----15----15----15----15----------------------------------|
C|----------------------------------------------------------------|
G|----------------------------------------------------------------|
C|----------------------------------------------------------------|
            
Submit corrections

comments powered by Disqus
↑ Back to top | Washya Tabs for Spit On You. Lyrics for acoustic guitar and electric guitar. Tablatures and chords are parodies/interpretations of the original songs. You may use it for private study, scholarship, research or language learning purposes only