» » »

Washya, Spirit Of The Damned Tabs (ver.1)

Artists:  A B C D E F G H I J K L M N O P Q R S T U V W X Y Z # 

Spirit Of The Damned Tabs (ver.1)

Washya Tabs
Rating:
0/5 (0 votes)
Spirit Of The Damned lessons Tabs too difficult? Try these video lessons and learn fast
                -----------------------------------------------------------------------------
-----------------------------------------------------------------------------
Tuning: Standard (EBGDAE)
Intro                  
E|--------------------------|---------------|
B|--------------------------|---------------|
G|--------------------------|-----3---3-----|
D|-555----------------------|---3-------5-3-|
A|-333-55-101010-222-333/44-|-5-----5-------|
E|-----33-8-8-8--000-111/22-|---------------|
               

Verses
E|------------------------------------------------------|
B|------------------------------------------------------|
G|------------------------------------------------------|
D|--------4-4-44-44---------4-4-44-44---------4-4-22----|
A|-222222-4-4-44-44-2222222-4-4-44-44-2222222-4-4-22-44-|
E|-000000-----------0000000-----------0000000--------22-|
PM ******           *******           *******        ** 

Chorus
E|---------------------------------------|
B|---------------------------------------|
G|---------------------------------------|
D|-------5-------3-3---10\9/12-8-7-5-----|
A|-2-5/7-3-5-4-2-1-1-2-8-\7/10-6-5-3-5-5-|
E|-0-3/5---3-2-0-----0---------------3-3-|

Solo
E|------------------------------------------------------------------5~-|
B|--------------------------------------------------------------8-7----|
G|------------------------------------------5t11p8p5t11p8p5-5-7--------|
D|---------------------3t9p6p3t9p6p3t10p6p3----------------------------|
A|-2t8p5p2t8p5p2t9p5p2-------------------------------------------------|
E|---------------------------------------------------------------------|

E|-5h7h8p7p5h7p5\3h5p3\2h3p2\1p0h1p0------------|
B|-----------------------------------3p2p0------|
G|-----------------------------------------2-2~-|
D|----------------------------------------------|
A|----------------------------------------------|
E|----------------------------------------------|
            
Submit corrections

comments powered by Disqus
↑ Back to top | Washya Tabs for Spirit Of The Damned. Lyrics for acoustic guitar and electric guitar. Tablatures and chords are parodies/interpretations of the original songs. You may use it for private study, scholarship, research or language learning purposes only