>
 >
Spine Tingler

Spine Tingler Guitar Tabs

Washya - Spine Tingler chords, tabs, tablatures, lyrics

Guitar lessons | Add/correct | Request | Top 50 tabs Artists:  A B C D E F G H I J K L M N O P Q R S T U V W X Y Z 0-9

Spine Tingler Guitar Tabs – Washya

CD, Sheet music, Poster

Do you like Spine Tingler? Share with your friends now
Tabs
-----------------------------------------------------------------------------
-----------------------------------------------------------------------------
Tuning: D Standard (DAFCGD)
Intro (Heavy)
D|--------------------------|
A|--------------------------|
F|--------------------------|
C|--------------------------|
G|-22-5-2-8-2-3-2-5-2-3-4-5-|
D|-00-3-0-6-0-1-0-3-0-1-2-3-|


Intro Part 2 (Heavy palm Mute)
D|--------------------------|
A|--------------------------|
F|--------------------------|
C|--------------------------|
G|-22-5-2-8-2-3-2-5-2-3-4-5-|
D|-00-3-0-6-0-1-0-3-0-1-2-3-|
PM ** * * * * * * * * * * * 

Verses
D|--------------------------------------------------|
A|--------------------------------------------------|
F|--------------------------------------------------|
C|----------------------------------------------8\7-|
G|-----------4\3-----------8\7--------------8\7-6\5-|
D|-00-000000-2\1-000-00000-6\5-00-000000-00-6\5-----|
PM ** ******     *** *****     ** ****** ** 

D|-------------------------------------------------------------------------|
A|-------------------------------------------------------------------------|
F|-------------------------------------------------------------------------|
C|-------------------------------------------------------------------88888-|
G|-------------------------------------------------------------------66666-|
D|-/12~\-00-000000-0-0-0000000-0-0-0000000-0-0-0000000-0-0-0000000-0-------|
PM       ** ****** * * ******* * * ******* * * ******* * * ******* * 

D|-------------------------------------------------------------------------|
A|-------------------------------------------------------------------------|
F|-------------------------------------------------------------------------|
C|-------------------------------------------------------------------66666-|
G|-------------------------------------------------------------------44444-|
D|-/13~\-00-000000-0-0-0000000-0-0-0000000-0-0-0000000-0-0-0000000-0-------|
PM       ** ****** * * ******* * * ******* * * ******* * * ******* * 

D|-------------------------------------------------------------------------|
A|-------------------------------------------------------------------------|
F|-------------------------------------------------------------------------|
C|-------------------------------------------------------------------33333-|
G|-------------------------------------------------------------------11111-|
D|-/12~\-00-000000-0-0-0000000-0-0-0000000-0-0-0000000-0-0-0000000-0-------|
PM       ** ****** * * ******* * * ******* * * ******* * * ******* *  

D|--------------------------------------------------------------------------|
A|--------------------------------------------------------------------------|
F|--------------------------------------------------------------------------|
C|-----------------------------------------------------------------------8\7|
G|-------------------------------------------------------------------8\7-6-5|
D|-/13~\-00-00000-0-0-0000000-0-0-0000000-0-0-0000000-0-0-00000000-0-6\5----|
PM       ** ***** * * ******* * * ******* * * ******* * * ******** * 

Chorus
D|----------------------------------------------------------|
A|----------------------------------------------------------|
F|-------/9p8p7~------7b------4b------2b--------------------|
C|--------------------9b------6b------4b--4p3p1-------------|
G|-3-2-3---------22-2----22-2----22-2-----------3-5-3-6-5-3-|
D|-1-0-1---------00-0----00-0----00-0-----------1-3-1-4-3-1-|
PM * * *         ** *    ** *    ** *           * * * * * *  


Solo
D|-----------------------------------10b-|
A|---7---7-----------8---8-----------10b-|
F|-----------7---7-----------8---8p5-----|
C|-5---5---5---5---5---5---5---5---------|
G|---------------------------------------|
D|---------------------------------------|

D|------------------------------------------13-10h12bp10------|
A|-77777777/88888888/1010101010101010-10h12--------------12~--|
F|------------------------------------------------------------|
C|-5555555/555555555/8888888888888888-------------------------|
G|------------------------------------------------------------|
D|------------------------------------------------------------|

D|-21b~-21b~-21b~-22bp21---------19-19----21----19----21----19-----|
A|-----------------------20\-/17-------17----17----17----17----17\-|
F|-----------------------------------------------------------------|
C|-----------------------------------------------------------------|
G|-----------------------------------------------------------------|
D|-----------------------------------------------------------------|

D|-------------------------------------------------------------------------|
A|-------------------------------------------------------------------------|
F|-------------------------------------------------------------------------|
C|----------------------------------------------14h16----14h16h17-14h16h17-|
G|-------------------14h16----14h16h17-14h16h17-------17-------------------|
D|-14h16h17-14h16h17-------17----------------------------------------------|
PM ******** ******** ******** ******** ******** ***** ** ********  

D|-------------------------------------------------------14h16----14h16h17-|
A|----------------------------14h16----14h16h17-14h16h17-------17----------|
F|-14h16----14h16h17-14h16h17-------17-------------------------------------|
C|-------17----------------------------------------------------------------|
G|-------------------------------------------------------------------------|
D|-------------------------------------------------------------------------|

D|--------14----------------14h17p14----------------14h17p14----------------|
A|--14h17----17p14----14h17----------17p14----14h17----------17p14----14h17-|
F|-----------------15----------------------15----------------------15-------|
C|--------------------------------------------------------------------------|
G|--------------------------------------------------------------------------|
D|--------------------------------------------------------------------------|

D|-14h17p14----------------14-19b-20b------|
A|----------17p14----14h17------------19b\-|
F|----------------15-----------------------|
C|-----------------------------------------|
G|-----------------------------------------|
D|-----------------------------------------|

Verses
D|--------------------------------------------------|
A|--------------------------------------------------|
F|--------------------------------------------------|
C|----------------------------------------------8\7-|
G|-----------4\3-----------8\7--------------8\7-6\5-|
D|-00-000000-2\1-000-00000-6\5-00-000000-00-6\5-----|
PM ** ******     *** *****     ** ****** ** 

D|-------------------------------------------------------------------------|
A|-------------------------------------------------------------------------|
F|-------------------------------------------------------------------------|
C|-------------------------------------------------------------------88888-|
G|-------------------------------------------------------------------66666-|
D|-/12~\-00-000000-0-0-0000000-0-0-0000000-0-0-0000000-0-0-0000000-0-------|
PM       ** ****** * * ******* * * ******* * * ******* * * ******* * 

D|-------------------------------------------------------------------------|
A|-------------------------------------------------------------------------|
F|-------------------------------------------------------------------------|
C|-------------------------------------------------------------------66666-|
G|-------------------------------------------------------------------44444-|
D|-/13~\-00-000000-0-0-0000000-0-0-0000000-0-0-0000000-0-0-0000000-0-------|
PM       ** ****** * * ******* * * ******* * * ******* * * ******* * 

D|-------------------------------------------------------------------------|
A|-------------------------------------------------------------------------|
F|-------------------------------------------------------------------------|
C|-------------------------------------------------------------------33333-|
G|-------------------------------------------------------------------11111-|
D|-/12~\-00-000000-0-0-0000000-0-0-0000000-0-0-0000000-0-0-0000000-0-------|
PM       ** ****** * * ******* * * ******* * * ******* * * ******* *  

D|--------------------------------------------------------------------------|
A|--------------------------------------------------------------------------|
F|--------------------------------------------------------------------------|
C|-----------------------------------------------------------------------8\7|
G|-------------------------------------------------------------------8\7-6-5|
D|-/13~\-00-00000-0-0-0000000-0-0-0000000-0-0-0000000-0-0-00000000-0-6\5----|
PM       ** ***** * * ******* * * ******* * * ******* * * ******** * 

Chorus
D|----------------------------------------------------------|
A|----------------------------------------------------------|
F|-------/9p8p7~------7b------4b------2b--------------------|
C|--------------------9b------6b------4b--4p3p1-------------|
G|-3-2-3---------22-2----22-2----22-2-----------3-5-3-6-5-3-|
D|-1-0-1---------00-0----00-0----00-0-----------1-3-1-4-3-1-|
PM * * *         ** *    ** *    ** *           * * * * * *  





Comments


Popular Washya tabs & chords
Paranormal Bass Tabs
Rainforest Bass Tabs
Alone Tabs
Fruit Elexia Tabs
Gift Horse Tabs
Lets Run Tabs
Slither Tabs
Social Silence Tabs
The Blind Side Tabs
This Bitter Life Tabs


Song lyrics



↑ Back to top | Tablatures and chords are parodies/interpretations of the original songs. You may use it for private study, scholarship, research or language learning purposes only
© 2014 AZChords.com Contact us | Privacy policy | DMCA | Add/correct tabs | Request tabs | Top 50 tabs