>
 >
Snake Eyes

Snake Eyes Guitar Tabs

Washya - Snake Eyes chords, tabs, tablatures, lyrics

Guitar lessons | Add/correct | Request | Top 50 tabs Artists:  A B C D E F G H I J K L M N O P Q R S T U V W X Y Z 0-9

Snake Eyes Guitar Tabs – Washya

CD, Sheet music, Poster

Do you like Snake Eyes? Share with your friends now
Tabs

Tuning: Drop C
Intro Main Riff
D|-----------------------------------------------------------------------|
A|-----------------------------------------------------------------------|
F|-----5---5---5------------------5---5---5---5------------------7-9-----|
C|-------6-------6-7-6--------------6-------6---6-4--------6-7-6---------|
G|---8-------8---------6--------8-------8-----------4----4---------------|
C|-9---------------------5----9-----------------------2------------------|

Verses
D|-------------------------------------7------------------------------------|
A|---------6---------8---------------7---7----------------9-----------------|
F|-------6---------8---8-----------6-------6------------9---9---------------|
C|-----5---------7-------7-------5-----------5--------8-------8\6-----10b-8-|
G|---4---------6-----------6---5---------------5----7-------------6/8-------|
C|-4---------6---------------6--------------------7-------------------------|

Chorus
D|--------------------------------------------------------------------------|
A|--------------------------------------------------------------------------|
F|-----------------8~--8----------------------------------------------------|
C|-2-2-2-2-----4-6-------7-6---3-3-3-3-----5-7~-7-------1-1-1-----3-5-----0-|
G|-2-2-2-2---4---------------5-3-3-3-3---5--------7-5---1-1-1---3-----5---0-|
C|-2-2-2-2-4-------------------3-3-3-3-5--------------3-1-1-1-3---------3-0-|

Guitar Solo
D|-------------------------------------------17b-17h18p17-15-17------------|
A|----------------------------------12-13-15-------------------------------|
F|-----6-6-7-6-7-9--9h10h12-13b~-12----------------------------------------|
C|---4--------------------------------------------------------------5-6-8--|
G|-2--------------------------------------------------------------3--------|
C|--------------------------------------------------------------3----------|

D|-------------------------------------------------------------------------|
A|-------------9-10-12-----------------------------------------------------|
F|-----------9---------12--------------------------3-1-3-1-3-0---0---------|
C|-8-10b---7--------------10-8-7-----------------1-------------2---2-0-3-2-|
G|-------7-----------------------9-9h10p9-7-9--1---------------------------|
C|-------------------------------------------------------------------------|

D|------------------------------------------------------------17b-20~--|
A|----------------------------------------15-----15-----15-15----------|
F|-------0-2-2h4p2---------10---10-11-13b----13b----13b----------------|
C|-0---2-----------2/4---8----8----------------------------------------|
G|---3-----------------8-----------------------------------------------|
C|---------------------------------------------------------------------|





Comments


Popular Washya tabs & chords
Black Ink Poisoning Tabs
Conquer And Annihilate Tabs
Cover Me Tabs
Dangerous Eyes Tabs
I Wish I Was Your Man Tabs
Kink In The Chain Tabs
Open Hanger Tabs
Passerby 1 Tabs
Raise Your Game Tabs
Tgr Translucent Gender Reassignment Tabs


Song lyrics



↑ Back to top | Tablatures and chords are parodies/interpretations of the original songs. You may use it for private study, scholarship, research or language learning purposes only
© 2014 AZChords.com Contact us | Privacy policy | DMCA | Add/correct tabs | Request tabs | Top 50 tabs