» » »

Washya, Slow Chant Tabs (ver.1)

Artists:  A B C D E F G H I J K L M N O P Q R S T U V W X Y Z # 

Slow Chant Tabs (ver.1)

Washya Tabs
 Rating:
4/5 (4 votes)
Slow Chant lessons Tabs too difficult? Try these video lessons and learn fast
1
                ------------------------------------------------------------------------------
------------------------------------------------------------------------------
Tuning: Standard (EBGDAE)
Intro/Verses
E|---------------------------------------------------------------|
B|---------------------------------------------------------------|
G|-----------------------3---------------------------------------|
D|---2------7------5-------3---3-----9-----8-----6-----4-------2-|
A|-----2------7------5-1---------3-----9-----8-----6-----4---2---|
E|-0------5------3-----------1-----7-----6-----4-----2-----0-----|

Chorus
E|-------------------------------|
B|-------------------------------|
G|-------------------------------|
D|----------33-------------------|
A|-22-77-55-11-33-99-88-66-44-22-|
E|-00-55-33----11-77-66-44-22-00-|

Lead
E|----------------------|
B|----------------------|
G|-----5~---------------|
D|---6----6-4-3---3-----|
A|-4------------5-------|
E|------------------3-5-|
            
Submit corrections

comments powered by Disqus
↑ Back to top | Washya Tabs for Slow Chant. Lyrics for acoustic guitar and electric guitar. 1 Tablatures and chords are parodies/interpretations of the original songs. You may use it for private study, scholarship, research or language learning purposes only