» » »

Washya, Slave Labour Tabs (ver.1)

Artists:  A B C D E F G H I J K L M N O P Q R S T U V W X Y Z # 

Slave Labour Tabs (ver.1)

Washya Tabs
 Rating:
4/5 (4 votes)
Slave Labour lessons Tabs too difficult? Try these video lessons and learn fast
                			     I'm Alive - Washya

Tuning: Standard (EBGdae) 
Intro
e|-------------------------------------------------------------------|
B|-------------------------------------------------------------------|
G|-------------------------------------------------------------------|
D|---------3---------------------------7v-7-6-4---------------3-2----|
A|-----6-5---6-5-3-----------------6-5----------4-3-1---------3-2----|
E|-0-2-------------6-5-3-0-0-0-0-0--------------------0-0-0-0-1-0----|
pm .                     . . . . .                    . . . .   

Verses
e|-----------------------------------------------------------------|
B|-----------------------------------------------------------------|
G|-----------------------------------------------------2-----------|
D|-----------------------------------------------------2-----2-0---|
A|---------2----------------------6--------------------0-0-2-----2-|
E|-0-2-5-4---5-4-2-4h5p4--0-2-5-4---5-4-2-4-2--0-2-5-4-------------|
pm . . . .   . . . . .    . . . .   . . . . .  . . . . 

Chorus
e|-------------------------------------------------------------------------|
B|-------------------------------------------------------------5-----------|
G|-----------------------------------------7-------------3-5-3---3-5-------|
D|-------5-7-7-----------------------3-6-5---6-5-------5-------------3-----|
A|---4-6-------7-5-3-5-3-3-------4-5-------------3-2-3-----------------5---|
E|-2---------------------1-2-2-2-------------------0-------------------3---|


Guitar Solo
e|---------------------------------------------------------------20b-20b-|
B|------------------------------------------------------15-16-18---------|
G|---------------------------------------------13-14-16------------------|
D|--------8---------------------------11-12-14---------------------------|
A|-7-8-10---10-8-7h8p7--------9-10-12------------------------------------|
E|---------------------8-9-11--------------------------------------------|
            
Submit corrections

comments powered by Disqus
↑ Back to top | Washya Tabs for Slave Labour. Lyrics for acoustic guitar and electric guitar. Tablatures and chords are parodies/interpretations of the original songs. You may use it for private study, scholarship, research or language learning purposes only