» » »

Washya, Silver Ghost Tabs (ver.1)

Artists:  A B C D E F G H I J K L M N O P Q R S T U V W X Y Z # 

Silver Ghost Tabs (ver.1)

Washya Tabs
 Rating:
4/5 (4 votes)
Silver Ghost lessons Tabs too difficult? Try these video lessons and learn fast
1
                -----------------------------------------------------------------------------
-----------------------------------------------------------------------------
Tuning: Standard (EBGDAE)
Intro
E|----------------------------------------------------------------------|
B|----------------------------------------------------------------------|
G|----------------------------------------------------------------------|
D|---------------------------------3h5p3---5-----3h5p3---5--------------|
A|-----1h3p1---3-----1h3p1---3-3h5-------5-3-3h5-------5-3-----5h7-8p7~-|
E|-1h3-------3-1-1h3-------3-1-----------------------------5h7----------|
PM *** ***** *   *** ***** *   *** ***** *   *** ***** *   *** ***   

Verses
E|-------------------------------------------------|
B|-------------------------------------------------|
G|-------------------------------------------------|
D|-----------2h3p2-----------------0---------------|
A|-------2h3-------3p2---------1h2---2p1-----5---7-|
E|-00000---------------00000-3-----------3-0-3-0-5-|
PM *****               *****               *   * 

Chorus
E|-------------------------------------------------------------------------|
B|-------------------------------------------------------------------------|
G|-------------------------------------------------------------------------|
D|-------------------------------------------------------------------------|
A|---4---5-4-2-----4---5-4-2-66/88---8---9-8-6-----8---9-8-6-66/33---3---4-|
E|-2---2-------4-2---2-------44/66-6---6-------4-6---6-------44/11-1---1---|
PM * * * * * * * * * * * * *       * * * * * * * * * * * * *       * * * *  

E|-----------------------------------------|
B|-----------------------------------------|
G|-----------------------------------------|
D|-----------------------------------------|
A|-3-1-----3---4-3-1-555/888-8-7-6-5-4-3-2-|
E|-----3-1---1-------333/666-6-5-4-3-2-1-0-|
PM * * * * * * * * *         * * * * * * *  
            
Submit corrections

comments powered by Disqus
↑ Back to top | Washya Tabs for Silver Ghost. Lyrics for acoustic guitar and electric guitar. 1 Tablatures and chords are parodies/interpretations of the original songs. You may use it for private study, scholarship, research or language learning purposes only