» » »

Washya, Showdown Tabs (ver.1)

Artists:  A B C D E F G H I J K L M N O P Q R S T U V W X Y Z # 

Showdown Tabs (ver.1)

Washya Tabs
 Rating:
4/5 (4 votes)
Showdown lessons Tabs too difficult? Try these video lessons and learn fast
1
                ------------------------------------------------------------------------------
------------------------------------------------------------------------------
Tuning: Standard (EBGDAE)
Intro/Chorus
E|-----------------------------------------|
B|-----------------------------------------|
G|-----------------------------------------|
D|-------5---------5-7-8-10-------3--------|
A|-7-5-7-3-7-5-5-7-3-5-6-8--5-3-5-1-55-4-2-|
E|-5-3-5---5-3-3-5----------3-1-3---33-2-0-|

Verses
E|-----------------------------------------------------|
B|-----------------------------------------------------|
G|-------3---------------------------------------------|
D|-5-3-5-------3-5-3-------3-5-6-8---------------------|
A|---------3-5-------5-3-5-------------------1-3-4-6-7-|
E|---------------------------------3-1-3-1-3-----------|

Intro/Chorus
E|-----------------------------------------|
B|-----------------------------------------|
G|-----------------------------------------|
D|-------5---------5-7-8-10-------3--------|
A|-7-5-7-3-7-5-5-7-3-5-6-8--5-3-5-1-55-4-2-|
E|-5-3-5---5-3-3-5----------3-1-3---33-2-0-|

Solo
E|-------------------------------------------------------------------------|
B|---------------------------------------------------3-----8-7-5-----------|
G|-9-9-7-9-11---9-11-9-8---------------6-5-3---5-3-5---5-5-------7---------|
D|------------9----------7-7-5-7-9---5-------5-----------------------------|
A|---------------------------------5-------------------------------------1-|
E|-----------------------------------------------------------------3-1-3---|
PM                                                                 * * * *  
            
Submit corrections

comments powered by Disqus
↑ Back to top | Washya Tabs for Showdown. Lyrics for acoustic guitar and electric guitar. 1 Tablatures and chords are parodies/interpretations of the original songs. You may use it for private study, scholarship, research or language learning purposes only