» » »

Washya, Shining Light Tabs (ver.1)

Artists:  A B C D E F G H I J K L M N O P Q R S T U V W X Y Z # 

Shining Light Tabs (ver.1)

Washya Tabs
 Rating:
4/5 (4 votes)
Shining Light lessons Tabs too difficult? Try these video lessons and learn fast
                
Tuning: Drop C (CGCFAD)

Intro/Rhythm x3
F|-------------|
A|-------------|
D|-----2-5-7-8-|
C|-1-1-2-3-5-6-|
G|-1-1-0-3-5-6-|
C|-1-1---------|

Intro/Lead1/Verses/Lead1 play continuously
F|--------------------------------------------------------------------------|
A|-------------------------------------------7-----------7---------8-10-8---|
D|-----7-9-7-------7-9-7-------7-9-7-----7-9---9-7---7-9---9-7-7-9--------9-|
C|---9-------9---9-------9---9-------9-7-----------7------------------------|
G|-7-----------7-----------7------------------------------------------------|
C|--------------------------------------------------------------------------|

Verses/Rhythm
F|---------------------------------------------------------10~-|
A|-------------------------------------------------------8-----|
D|-----------2-2---------3-3-x-4-4-----------------7-7-6-------|
C|-1-1-1-0-0-2-2-5-5-8-3-3-3-x-4-4-6-6-6-6-2-2-2-2-7-7---------|
G|-1-1-1-0-0-0-0-5-5-8-3-1-1-x-2-2-6-6-6-6-2-2-2-2-5-5---------|
C|-1-1-1-0-0-----5-5-8-3-----------6-6-6-6-2-2-2-2-------------|

Lead 2
F|---------------------------------------------------------------------10~--|
A|-------------------------------------------7-----------7-----------8------|
D|-----7-9-7-------7-9-7-------7-9-7-----7-9---9-7---7-9---9-7-7-9-7--------|
C|---9-------9---9-------9---9-------9-7-----------7------------------------|
G|-7-----------7-----------7------------------------------------------------|
C|--------------------------------------------------------------------------|

Solo/play VERY VERY FAST
D|-13p11----11h13-x15--14p12----12h14-x15--15p13----13h15-17p15----15h17--|
A|-------12------------------13------------------14-------------16--------|
F|------------------------------------------------------------------------|
C|------------------------------------------------------------------------|
G|------------------------------------------------------------------------|
C|-//---------------------------------------------------------------------|

F|-19p17----17h19-x15--21p19----19h21-x15-22-22-22~---------------------|
A|-------18------------------20---------------------9-7---------------7-|
D|------------------------------------------------------7---------8-9---|
C|--------------------------------------------------------9---9-7-------|
G|----------------------------------------------------------7-----------|
C|----------------------------------------------------------------------|

F|-10~---------------------------------------------------------8-10~----|
A|-----9-7---7-9---------------------------------------------7----------|
D|---------9-----7-------------------9-7-9-7-9-9-------9-7-9------------|
C|-----------------9---9-7-7-7-7-9-7-------------7---7------------------|
G|-------------------7-----------------------------9--------------------|
C|----------------------------------------------------------------------|

F|-14h15p14s12h13p12-11---------------------------------------------------|
A|----------------------12-11---------------------------------------------|
D|----------------------------12----------------------------------12~-----|
C|-------------------------------11-12--------9-7---9-7---9-7---10--------|
G|-------------------------------------10-9-7-----8-----8-----8-----------|
C|------------------------------------------------------------------------|

Outro
e|-----------------------------------------------|
B|-----------------------------------------------|
G|-----2-----------------------------------------|
D|-1-1-2-0-0-0-------------------3-2-0-3-2-0-1-0-|
A|-1-1-0-0-0-0-3-2-0-3-2-0-3-2-0-3-2-0-3-2-0-1-0-|
E|-1-1---0-0-0-------------------3-2-0-3-2-0-1-0-|
            
Submit corrections

comments powered by Disqus
↑ Back to top | Washya Tabs for Shining Light. Lyrics for acoustic guitar and electric guitar. Tablatures and chords are parodies/interpretations of the original songs. You may use it for private study, scholarship, research or language learning purposes only