» » »

Washya, Shaela Tabs (ver.1)

Artists:  A B C D E F G H I J K L M N O P Q R S T U V W X Y Z # 

Shaela Tabs (ver.1)

Washya Tabs
 Rating:
4/5 (4 votes)
Shaela lessons Tabs too difficult? Try these video lessons and learn fast
                
Tuning: Standard (ebgDAE) 
Intro
e|-------12b--------------------|
B|-------15b--------------------|
G|------------------------------|
D|------------------------------|
A|-222-2-----222-2-222333444555-|
E|-000-0-----000-0-000111222333-|
pm ... .     ... . ............


Main Riff/Chorus (play fast)
e|-----------------------------------------------------------------|
B|-----------------------------------------------------------------|
G|-----------------------------------------------------------------|
D|---------7-----------------------------2-----------2-------------|
A|-22--7h8---8p7-------------2-2-2-2-2h3---3p2p0-2h3---3p2p0-2-2-2-|
E|-00------------8-7-5-7-5-3-0-0-0-0-------------------------0-0-0-|
pm ..                        . . . .                         . . . 

Verses
e|-0~-0~-0~-0~-0~----------|
B|-0~-0~-0~-0~-0~----------|
G|-9~-0~-7~-5~-2~-------2~-|
D|-9~-9~-7~-5~-2~---2-0----|
A|-7~-9~-5~-3~-0~-0--------|
E|-0~-7~-0~-0~-0~----------|

Guitar Solo
e|-12h15t20p15p12h15t20p15p12h15t22p15p12h15--------------------------------|
B|-------------------------------------------15h22p15h22p15-----------------|
G|----------------------------------------------------------15p14p12--------|
D|-------------------------------------------------------------------10-8-7-|
A|--------------------------------------------------------------------------|
E|--------------------------------------------------------------------------|



e|--------------------------12~-12h15p12----12----------15-20~-|
B|-----------------------10--------------15----15-13-12--------|
G|------------------9~-9---------------------------------------|
D|-8-10---------7-7--------------------------------------------|
A|------9-7---9------------------------------------------------|
E|----------7--------------------------------------------------|
            
Submit corrections

comments powered by Disqus
↑ Back to top | Washya Tabs for Shaela. Lyrics for acoustic guitar and electric guitar. Tablatures and chords are parodies/interpretations of the original songs. You may use it for private study, scholarship, research or language learning purposes only