» » »

Washya, Scaramanga Tabs (ver.1)

Artists:  A B C D E F G H I J K L M N O P Q R S T U V W X Y Z # 

Scaramanga Tabs (ver.1)

Washya Tabs
Rating:
0/5 (0 votes)
Scaramanga lessons Tabs too difficult? Try these video lessons and learn fast
                -----------------------------------------------------------------------------
-----------------------------------------------------------------------------
Tuning: Standard (ebgDAE)
Intro
e|--------------------------|
b|--------------------------|
g|--------------------------|
D|-44-44-42-----------------|
A|-22-22-20---3-2---2-3-2---|
E|----------4-----3-------2-|
PM          . . . . . . . . 

Part 2
e|-------------------------|
b|-------------------------|
g|-------------------------|
D|--------------3----------|
A|-3-3-33-3-2-2-1-3-33-3-2-|
E|-1-1-11-1-0-0---1-11-1-0-|

Part 3
e|-----------------------------------|
b|-----------------------------------|
g|-----------------------------------|
D|-3-------3-------3-------3---------|
A|-1-2-3-4-1-2-3-4-1-2-3-4-1-2-3-4-2-|
E|---0-1-2---0-1-2---0-1-2---0-1-2-0-|
PM . . . . . . . . . . . . . . . . 

Verses
e|---------------------|
b|---------------------|
g|---------------------|
D|-------3-------5-----|
A|-2-5-2-1-5-3-2-3-4-2-|
E|-0-3-0---3-1-0---2-0-|

Chorus
e|-----------------------------------|
b|-----------------------------------|
g|-----------------------------------|
D|-------------3-------------5-------|
A|-----4---5---1----3---5----3-4-3-2-|
E|-000-2-0-3-0---00-1-0-3-00---2-1-0-|
PM ...   .   .   ..   .   ..      
            
Submit corrections

comments powered by Disqus
↑ Back to top | Washya Tabs for Scaramanga. Lyrics for acoustic guitar and electric guitar. Tablatures and chords are parodies/interpretations of the original songs. You may use it for private study, scholarship, research or language learning purposes only