» » »

Sabe Tabs (ver.1)

Artists:  A B C D E F G H I J K L M N O P Q R S T U V W X Y Z # 

Sabe Tabs (ver.1)

Washya
Rating:
0/5 (0 votes)
Tabs too difficult? Try these video lessons and learn fast.
                ------------------------------------------------------------------------------
------------------------------------------------------------------------------
Tuning: Standard (EBGDAE)
Intro
E|---------------------------------------------------|
B|---------------------------------1-----------------|
G|---------------2---2-2-------------0---------------|
D|-----2---2---2---3-2---2-------2---------3-----5-2-|
A|---2---3-2-0-------0-----0---3---------3-----5---2-|
E|-0-------0-----------------0---------1-----3-----0-|

Verses
E|--------------------------------------------|
B|--------------------------------------------|
G|-------5*-----------------------3*----------|
D|-7-5------7-6-5-----------3-5---------------|
A|-----7----------7---3-4-5-----5---777-5-4-3-|
E|------------------5---------------555-3-2-1-|
PM                                  *** 

Chorus
E|---------------------------------------------------------------|
B|---------------------------------------------------------------|
G|---------------------------------------------------------------|
D|-------------------------------------555---------333-----------|
A|-555666777-222-988877755-222-3334445-333-3334445-111-5554443-2-|
E|-333444555-000-766655533-000-1112223-----1112223-----3332221-0-|
            
Tabs too difficult? Try these video lessons and learn fast.


comments powered by Disqus
↑ Back to top | Tablatures and chords are parodies/interpretations of the original songs. You may use it for private study, scholarship, research or language learning purposes only