» » »

Washya, Rise Tabs (ver.1)

Artists:  A B C D E F G H I J K L M N O P Q R S T U V W X Y Z # 

Rise Tabs (ver.1)

Washya Tabs
 Rating:
4/5 (4 votes)
Rise lessons Tabs too difficult? Try these video lessons and learn fast
1
                
Tuning: Drop D (DADGBE) 
Intro 
e|-----10---12-10----12-10-----------------------|
B|-7h8----8----------------8-8-8-8-8-7-7-7-5-5-5-|
G|-----------------------------------------------|
D|-----------------------------------------------|
A|-----------------------------------------------|
D|-----------------------------------------------|

Verses
e|-----------0-------------------------0-0-3-0--------------------------|
B|-1-1-1-----1-------------------------2-2-----3-0----------------------|
G|-2-2-2-0-2-0-------------5-5-5-7-7-7-2-2---------3-2-0----------------|
D|-2-2-2-----3-------------3-3-3-5-5-5-2-2---------------2-0---------3--|
A|-----------2-3-3-3-5-5-5-------------0-0-------------------2-1-----3--|
D|-----------0-3-3-3-5-5-5-------------0-0-----------------------3-0-3--|

Chorus
e|---------------------------------------------------------|
B|---------------------------------------3-3b~-------------|
G|-------------------7-7-7-7-4-4-4-----2-------3-2---------|
D|-5-5-5-8-8-8-3-3-3-7-7-7-7-4-4-4-0-2-------------0-2-----|
A|-5-5-5-8-8-8-3-3-3-5-5-5-5-2-2-2---------------------2---|
D|-5-5-5-8-8-8-3-3-3-------------------------------------0-|

Guitar Solo
e|---------------10h12p10h12p10h12p10-15~----12----13-12-10-----------|
B|-10~-10-12-13b--------------------------12----12----------12-10-12~-|
G|--------------------------------------------------------------------|
D|--------------------------------------------------------------------|
A|--------------------------------------------------------------------|
D|--------------------------------------------------------------------|
            
Submit corrections

comments powered by Disqus
↑ Back to top | Washya Tabs for Rise. Lyrics for acoustic guitar and electric guitar. 1 Tablatures and chords are parodies/interpretations of the original songs. You may use it for private study, scholarship, research or language learning purposes only