» » »

Washya, Remember Tabs (ver.1)

Artists:  A B C D E F G H I J K L M N O P Q R S T U V W X Y Z # 

Remember Tabs (ver.1)

Washya Tabs
 Rating:
4/5 (4 votes)
Remember lessons Tabs too difficult? Try these video lessons and learn fast
1
                
Tuning:
Intro (Distortion)
e|-----------------------------|
B|-----------------------------|
G|-----------------------------|
D|-0-5-3-0-5-3-0-5-3-0-5/7-7-7-|
A|-0-5-3-0-5-3-0-5-3-0-3/5-5-5-|
D|-0-5-3-0-5-3-0-5-3-0---------|

Verses
e|----------------------------------------------------|
B|----------------------------------------------------|
G|---------------------------12-12-7-7-7--------------|
D|-3-3-6-6-6-5-5-5-5-1-1-1-1-10-10-7-7-7--------------|
A|-3-3-6-6-6-5-5-5-5-1-1-1-1-10-10-5-5-5-------5-3-0--|
E|-3-3-6-6-6-5-5-5-5-1-1-1-1-------------5-3-0--------|

Chorus
e|--------------------------------------------------------------------------|
B|--------------------------------------------------------------------------|
G|-----------------------------------------5-5-5-------------------------5--|
D|-----------------------------------------5-5-5-------------------------5--|
A|---5-3-0-5-5-5---5-3-0-3-3-3-------5-3-0-3-3-3-3-1-0-1-1-1-------5-3-0-3--|
D|-0-------5-5-5-0-------3-3-3-5-3-0-------------------1-1-1-5-3-0----------|


e|----------------------------------------------------|
B|----------------------------------------------------|
G|--------------------------------------9-9-9--9------|
D|--------------------------------------9-9-9--9------|
A|-3-3--3-3-0-3-5-----------2-2-2-------7-7-7--7-44-7-|
D|-3-3--3-3-0-3-5-0-0-5-3-0-2-2-2-5-3-0----------44-7-|


Solo (Lead)
e|-----------------------------------------------------------------------|
B|-----------------------------------------------------------------------|
G|-----------------------------------------------------------------------|
D|---------------------------------------------------5-3-0---------------|
A|-5-3-0-5-5-5-5-3-0---------------------------5-3-0-------5-5-----------|
D|-------------------5-5-5-7-3-3-5-5-5-3-5-3-0-----------------5-3-5-3-0-|
            
Submit corrections

comments powered by Disqus
↑ Back to top | Washya Tabs for Remember. Lyrics for acoustic guitar and electric guitar. 1 Tablatures and chords are parodies/interpretations of the original songs. You may use it for private study, scholarship, research or language learning purposes only